Wishing Well by Buckethead
from Colma

tabbed by Clark Hasan

tuning low to high: e A D G B E

riff 1
E)--5-5-5--5----0-0-0--0--15--14---------
B)--3-3-3--3----1-1-1--1----------15--12-
G)--0-0-0--0----0-0-0--0-----------------
D)--0-0-0--0----2-2-2--2-----------------
A)--x-x-x--x----3-3-3--3-----------------
e)--5-5-5--5----0-0-0--0-----------------
let ring

E)--5-5-5--5----0-0-0--0--15--15/17--12-13-12\-10--10-
B)--3-3-3--3----1-1-1--1------------------------------
G)--0-0-0--0----0-0-0--0------------------------------
D)--0-0-0--0----2-2-2--2------------------------------
A)--x-x-x--x----3-3-3--3------------------------------
e)--5-5-5--5----0-0-0--0------------------------------
let ring

riff 2
G)-------------------9--7--9--------------------7--7-7-7-
D)---------------------------10p9------7--9--7-----------
A)---------9--9-9-9---------------10p9-------------------
(harmonic) . . . . . . . .