We Are One
from 'Enter The Chicken'

tabbed by Nick Di Cresce

riff from 0:41 ~ 0:55 (the really quick bumpin' one)

note: Buckethead either plays this with an octaver or there's two parts dubbed over each other. I've tabbed both high and low parts (an octave apart). Also, lightly palm mute everything. The rest of the song is up to you.

s: these are all sixteenth notes

Higher part:
                         s s s s s s s s
e|-------------------------------------6-------|
B|-----------8---8-----------6-8-9-8-9---------|
G|----5---5---------5----7-8-------------------|
D|---------------------------------------------|
A|---------------------------------------------|
E|---------------------------------------------|

                        s s s s s s s s
e|----------------------8-6-----6-------------| ||
B|-----------8---8----------9-8---9-8-6-------|o||
G|----5---5---------5-------------------------| || x whatever
D|--------------------------------------------| ||
A|--------------------------------------------|o||
E|--------------------------------------------| ||

Lower part:
                         s s s s s s s s
e|---------------------------------------------|
B|---------------------------------------------|
G|-------------------------------------3-------|
D|-----------5---5-----------3-5-6-5-6---------|
A|----3---3---------3----5-6-------------------|
E|---------------------------------------------|

                         s s s s s s s s
e|---------------------------------------------| ||
B|---------------------------------------------|o||
G|-----------------------5-3-----3-------------| || x whatever
D|-----------5---5-----------6-5---6-5-3-------| ||
A|----3---3---------3--------------------------|o||
E|---------------------------------------------| ||