Want Some Slaw? by Buckethead
from Giant Robot

as tabbed by 'a Buckethead fan'

Tuning : Eb Ab Bb Gb Bb Eb

Main riff
|-------------------------------------------------------------------------|
|---5--8--7----------5--8--7h8p7----------------5--8--7--4--7--6--3--6--5-|
|-------------------------------------------------------------------------|
|-------------------------------------------------------------------------|
|------------4---3----------------------4--3------------------------------|
|------------2---1----------------------2--1------------------------------|

|---------------------------------------------------------------------------------------|
|o-------------------------------------------------------------------------------------o|
|---------------------------------------------------------------------------------------|
|-----8-11-10-----------------8-11-10-11-10-----------------10-13-12-9-12-11-8-11-10----|
|o----8-11-10----4-3-0-3------8-11-10-11-10----2-1-0-1------8--11-10-7-10-9--6-9--8----o|
|----------------2-1-0-1-----------------------2-1-0-1----------------------------------|

"Buckethead`s a psycho hes a total psycho" part
|------------------------------------------------------------------------|
|o-----------------------------------------------------------------------|
|--19-15------19-15------19-15------17-14------15-12-----15-12-----------|
|---------17----------17--------17----------15---------13--------13------|
|o-----------------------------------------------------------------------|
|------------------------------------------------------------------------|

|--------------------------------------------------------------------------|
|-------------------------------------------------------------------------o|
|-15-12------17-14---------------------------------------------------------|
|-------13----------15-----------------------------------------------------|
|--------------------------6-5--------------------------------------------o|
|--------------------------4-3---------------------------------------------|

|------------------------------------------------------------------------|
|o----------------------------------------11--12--11---------------------|
|-----------------------------------------11--11--11---------------------|
|------------------------------------------------------------------------|
|o--5--5--()-()--5--5--()-()--5-5--()-()---------------------------------|
|---3--3--()-()--3--3--()-()--3-3--()-()---------------------------------|

|-------------------------------------------------------------------------|
|----------------------------------------16--17--16----------------------o|
|----------------------------------------16--16--16-----------------------|
|-------------------------------------------------------------------------|
|--5--5--()-()--5--5--()-()--5-5--()-()----------------5-----------------o|
|--3--3--()-()--3--3--()-()--3-3--()-()----------------3------------------|

|---------------------------------------------------------------------------|
|o---5--8--7----------5--8--7h8p7----------------5--8--7--4--7--6--3--6--5-o|
|---------------------------------------------------------------------------|
|---------------------------------------------------------------------------|
|o------------4---3----------------------4--3------------------------------o|
|------------2---1----------------------2--1--------------------------------|

|---------------------------------------------------------------------------------------|
|o-------------------------------------------------------------------------------------o|
|---------------------------------------------------------------------------------------|
|o----8-11-10-----------------8-11-10-11-10-----------------10-13-12-9-12-11-8-11-10---o|
|-----8-11-10----4-3-0-3------8-11-10-11-10----4-3-0-3------8--11-10-7-10-9--6-9--8-----|
|----------------2-1-0-1-----------------------2-1-0-1----------------------------------|

SOLO
|-----------------------------------------------------------------------------|
|------------------------------15-13-11---------------------------------------|
|-14---12--10---12-14-------------------14~-----14--12--10--12-14-------------|
|-----------------------12--------------------------------------------12------|
|-----------------------------------------------------------------------------|
|-----------------------------------------------------------------------------|

|---------------------------------------------------------------------------|
|---------------------------------------------------------------------------|
|---------10---7~-----------------------------------------------------------|
|-7--10---------------------------------------------------------------------|
|-----------------------------------10-11-13-11-10-----10-11-13-15----------|
|--------------------------8-11-13------------------13----------------------|

|-------------------------------------------------------------------------|
|-------------------------------------------------------------------------|
|---------------------------------------13-15-17-15-13--------------------|
|----------------------------13-15-17-------------------17-15-13--9-------|
|-16-15-13-------13-15-16-------------------------------------------------|
|------------16-----------------------------------------------------------|

|-----------------------------------------------------------------------|
|-----------------------------------------------------------------------|
|-12-(half step bend)-----13--------------------------------------------|
|-----------------------------17-15-13-15-17--13-(1 step bend)----------|
|-----------------------------------------------------------------------|
|-----------------------------------------------------------------------|

|----------------------13--------------------13-15-16-15-16-15-13-------|
|--13-14-16-13-14-16-----16-14-13--14-16--------------------------------|
|-----------------------------------------------------------------------|
|-----------------------------------------------------------------------|
|-----------------------------------------------------------------------|
|-----------------------------------------------------------------------|

|-----------------------------------------------------------------------------|
|-16-14-13-14-16-14-13-----13-------------------------------------------------|
|-------------------------15----15-13-15-13-12--------------------------------|
|------------------------------------------------15-13-11---------------------|
|-----------------------------------------------------------15-13-11----------|
|-----------------------------------------------------------------------------|

|--------------------------------------------------------------------------|
|--------------------------------------------------------------------------|
|--------------------------------------------------------------------------|
|--------------------------------------------------------------------------|
|--------------------------------------------------------------------------|
|-15-13-11-13-15--16-16~~--------------------------------------------------|

Next riff (repeat as needed)
|-----------------------------------------------------------------------------|
|o---------------------------------------------------------------------------o|
|-----------------------------------------------------------------------------|
|-----------------------------------------------------------------------------|
|o--4---------4----------------4----------------4---------------4---------3~-o|
|---2--2tr3---2--2-2---2tr3----2---2-2-2--2tr3--2---2-2--2tr3---2--2-2-2------|

a couple of times
next riff
|--------------------------------------------------------------------------------------|
|-9-9------10-10-----11-11--------12-12-------13-13-------14-14-------15-15------------|
|------11--------12---------13------------14----------15----------16----------17-------|
|--------------------------------------------------------------------------------------|
|--------------------------------------------------------------------------------------|
|--------------------------------------------------------------------------------------|



as tabbed by Limpy Hodzic

Main riff
-----------------------------------------------------------------------
-----------------------------------------------------------------------
--8--11-10-----------8--11-10-11-10----------8-11-10-7-10-9-6-9-8------
-----------------------------------------------------------------------
------------4---3----------------------4--3----------------------------
------------2---1----------------------2--1----------------------------

Buckethead's a psycho, he's a total psycho...
-----------------------------------------------------------------------
-----------------------------------------------------------------------
--19-15------19-15------19-15------17-14------15-12-----15-12----------
---------17----------17--------17----------15---------13--------13-----
-----------------------------------------------------------------------
-----------------------------------------------------------------------

-----------------------------------------------------------------------
-----------------------------------------------------------------------
-15-12------17-14------------------------------------------------------
-------13----------15---------------------------------------------AGAIN
-----------------------------------------------------------------------
-----------------------------------------------------------------------

-----------------------------------------------------------------------
----------------------------------------10--11--10---------------------
----------------------------------------10--10--10---------------------
-----------------------------------------------------------------------
--5--5--()-()--5--5--()-()--5-5--()-()---------------------------------
--3--3--()-()--3--3--()-()--3-3--()-()---------------------------------

-----------------------------------------------------------------------
----------------------------------------15--16--15---------------------
----------------------------------------15--15--15---------------------
-----------------------------------------------------------------------
--5--5--()-()--5--5--()-()--5-5--()-()---------------------------------
--3--3--()-()--3--3--()-()--3-3--()-()---------------------------------

play that a few times and then play the main riff
after the main riff the solo/lead part comes

Solo
------------------------------------------------------------------------
-----------------------------15-13-11-----------------------------------
-14---12--10---12-14-------------------14~-----14--12--10--12-14--------
-----------------------12------------------------------------------12---
------------------------------------------------------------------------
------------------------------------------------------------------------

------------------------------------------------------------------------
------------------------------------------------------------------------
---------10---7~--------------------------------------------------------
-7--10------------------------------------------------------------------
-----------------------------------10-11-13-11-10-----10-11-13-15-------
--------------------------8-11-13------------------13-------------------

------------------------------------------------------------------------
------------------------------------------------------------------------
---------------------------------------13-15-17-15-13-------------------
----------------------------13-15-17-------------------17-15-13--9------
-16-15-13-------13-15-16------------------------------------------------
------------16----------------------------------------------------------

------------------------------------------------------------------------
------------------------------------------------------------------------
-12-(half step bend)-----13---------------------------------------------
-----------------------------17-15-13-15-17--13-(1 step bend)-----------
------------------------------------------------------------------------
------------------------------------------------------------------------

---------------------13--------------------13-15-16-15-16-15-13---------
--13-14-16-13-14-16-----16-14-13--14-16---------------------------------
------------------------------------------------------------------------
------------------------------------------------------------------------
------------------------------------------------------------------------
------------------------------------------------------------------------

------------------------------------------------------------------------
-16-14-13-14-16-14-13------13-------------------------------------------
------------------------15----15-13-15-13-12----------------------------
------------------------------------------------15-13-11----------------
-----------------------------------------------------------15-13-11-----
------------------------------------------------------------------------

------------------------------------------------------------------------
------------------------------------------------------------------------
------------------------------------------------------------------------
------------------------------------------------------------------------
------------------------------------------------------------------------
-15-13-11-13-15--16-16~~------------------------------------------------

next riff

------------------------------------------------------------------------
------------------------------------------------------------------------
------------------------------------------------------------------------
------------------------------------------------------------------------
--4-------4--------------4---------------4-------------4---------3~-----
--2--4/---2--2-2---4/----2---2-2-2--4/--2---2-2--4/---2--2-2-2----------
a couple of times

next riff
--------------------------------------------------------------------------
-9-9------10-10-----11-11-------------------------------------------------
------11--------12---------13----and up the scale-------------------------
--------------------------------------------------------------------------
--------------------------------------------------------------------------
--------------------------------------------------------------------------

there is only one thing left you have to know about, the weird chords in the end of the song.
they are really hard to find out but here's one of them

--0~------------------------
--4~------------------------
--8~------------------------
----------------------------
----------------------------
----------------------------