Unrestrained Growth by Buckethead
from 'Population Override'

tabbed by Keenan Goodall

Not complete at all, but it's better than nothin'. Might have more in the future.

-----------------------------------------------------------------------------------
-----------------------------------------------------------------------------------
-----------------------------------------------------------------------------------
---8~~~~-----------8---10^--^--^--^----10^--10--8--10--10^---8---------------------
----------------10------------------------------------------------------10-----8---
-----------------------------------------------------------------------------------

----------------------------------------------------------------------------
----------------------------------------------------------------------------
-----------10-------10--12b-------------15--17--17^--^---15-----------------
--10--12-------12------------------17---------------------------17~~-15-----
----------------------------------------------------------------------------
----------------------------------------------------------------------------

------------------------------------------------------------------------
------------------------------------------------------------------------
------------------------------------------------------------------------
--12--10--8--10--/12--8~~---10^-----------------------------------------
------------------------------------------------------------------------
------------------------------------------------------------------------

Use your knowledge of music to mix it up and play around with it until you feel it sounds good.
Tabs are just a guide for the notes, play it how you want. It's good for jammin', just use these notes basically.