Buckethead's TV Show by Buckethead
from Giant Robot

transcribed by Ryan Cole

1st guitar part:

I've broken it into measures, but in no other way is timing indicated.

E-------7-5-|-3-----|-----------|---------|-------
B---777-----|---7-7-|---777-5-3-|-2-3p2---|---8-8-
G-4---------|-------|-4---------|-------4-|-------
D-----------|-------|-----------|---------|-5-----
A-----------|-------|-----------|---------|-------
E-----------|-------|-----------|---------|-------

E-----|-------|-------------|-------||--------------|-10-
B-----|-------|---8-8-------|-------||-10-7-7-8-7-5-|----
G-7-6-|-4---4-|-------9-7-6-|-4---4-||--------------|----
D-----|---4---|-5-----------|---4---||--------------|----
A-----|-------|-------------|-------||--------------|----
E-----|-------|-------------|-------||--------------|----

E-9-9-9-10-12-|---------------------|-----||-
B-------------|-12-10-10h12-12-10-8-|-----||-
G-------------|---------------------|-11--||-
D-------------|---------------------|-----||-
A-------------|---------------------|-----||-
E-------------|---------------------|-----||-

Play that last part twice.

2nd guitar part:

The timing on this part is a little tricky, so I wrote the beat count under the tab.

E||------------------||------------------||------------
B||------------------||------------------||------------
G||------------------||------------------||------------
D||-4-444-444-444-44-||-4-444-444-447----||-4-444-444--
A||-2-222-222-222-22-||-2-222-222-225----||-2-222-222--
E||------------------||------------------||------------
1e&a2e&a3e&a4e&a 1e&a2e&a3e&a4e&a 1e&a2e&a3

E--------||------------------||------------------------
B--------||------------------||------------------------
G--------||------------------||------------------------
D--------||------------------||------------------------
A-777-55-||-5-555-555-555-55-||------------------------
E-555-33-||-3-333-333-333-33-||------------------------
e&a4e&a 1e&a2e&a3e&a4e&a

It should be easy to figure out how many times to play each part and when to switch.
At least, a lot easier than it would be to type all that stuff out.

This next part (still the second guitar), I'm not so sure is 100% correct.
It's too quiet on my stereo, so this is just a guess.

E||----|-----|----|-----|----|-----|----|-----||-------
B||----|-----|----|-----|----|-----|----|-----||-------
G||----|-----|----|-----|----|-----|----|-----||-------
D||-2--|-(2)-|----|-----|-4--|-(4)-|----|-----||-------
A||-0--|-(0)-|-5--|-(5)-|-2--|-(2)-|-4--|-(4)-||-------
E||----|-----|-3--|-(3)-|----|-----|-2--|-(2)-||-------

The notes in parentheses are just the notes from the first chord still ringing.
Don't pick those notes.

Both guitars do this part:

E||---------------------|-----------------||-----------
B||---------------------|-----------------||-----------
G||---------------------|-----------------||-----------
D||-4-X-X-4-2-4-X-X-4-2-|-4-X-X-4-2-4-----||-----------
A||-2-X-X-2-0-2-X-X-2-0-|-2-X-X-2-0-2--X\-||-----------
E||---------------------|--------------X\-||-----------

As soon as I have access to some stereo speakers, I'll make sure I got that one iffy part right. If anyone else has some, maybe you could check for me?