Torture Tunnel by Buckethead
from Cobra Strike ~ 13th Scroll

as tabbed by Chris Moss

same riffage as Revenge of the Double Man, but soaked in a lot of distortion.
I'll do one tab how to play it clean and the other with the manipulation of the fuzz.
as for the tone, it sounds like he uses a fuzz pedal whacked up full with a bit of
overdrive on the amp, as well with a tiny bit of Octavier (heard on Cornbugs cd's.)
I use an envelope filter on low sensitivity, although Bucket maybe used a
wah wah for the tone. well anyway, just binge around with any effect.
enjoy...and remember LOADA FUZZZ

"Clean" riff
e||----------------------------------||
B||----------------------------------||
G||----------------------------------||
D||----------------------------------||
A||---------4-4-4-3~-----------------||
E||14/----2-2-2-----0-5--0-4--0-3--0-||

"Ultra dirty" riff
e||--------------------------------------------------||
B||--------------------------------------------------||
G||--------------------------------------------------||
D||--------------------------------------------------||
A||----------4-4-0-<3>*------------------------------||
E||-14/----2-2-2---------0-h-5--0-h-4--0-h-3-p-0-----||
*2nd & 4th time..<>= PH*

e||--------------------------||
B||--------------------------||
G||--------------------------||
D||--4--4--4--4--4--4--4--4--||
A||--4--4--4--4--4--4--4--4--||
E||--2--2--2--2--2--2--2--2--||

e||-----------------------------------------------||
B||-----------------------------------------------||
G||-----------------------------------------------||
D||-----------------------------------------------||
A||----------4-4-0-3------------------------------||
E||-14/----2-2-2-----0-h-5--0-h-4--0-h-3-p-0------||

e||-------------------------||
B||-------------------------||
G||-------------------------||
D||--4--4--4--4--4--4--3----|| 2nd time
A||--4--4--4--4--4--4--3----||
E||--2--2--2--2--2--2--1----||