Stick Pit from Monsters and Robots
by Buckethead

tabbed by magic_medicine311@hotmail.com

* this is an updated version *

^ = down stroke
m = middle finger


Riff 1 / intro (alternate pick this)

e--1-2-1-2-1-0-1-2-1-2-0-1-2-1
b-----------------------------
g-----------------------------
d-----------------------------
a-----------------------------
E-----------------------------

{its pretty close to the sound, just listen to the song to get the rhythm down}


Riff 2

e--------------------------------------
b--------------------------------------
g--------------------------------------
d-2222----1111-------------------------
a-----3333----2222------hphph----------
E-----------------0000-010101----------
  |pm..................|


Riff 3

*some explanation is needed for this part....to get this down try using hybrid picking
to do this you are gonna pick the low E with down strokes and pluck the G, D, A strings with your middle finger

there is also another method to this....you can use your thumb to plunk the low E and use your index to plink the G, D, A strings with your right hand....for the left hand just leave your index finger on the note and use your middle and pinky fingers on the higher notes


      m   m     m         m     m      m
e--------------------------------------
b--------------------------------------
g----9--------------------------------9
d--------10--------------------10------ 2x
a-------------11---------11------------
E--7---7----7----7-12-7-----7------7---
    ^   ^    ^    ^  ^ ^     ^      ^

e-------------------------------------
b-------------------------------------
g-----8------------------------------8
d---------9--------------------9------ 2x
a-------------10--------10------------
E--6---6----6----6-11-6-----6----6----


e---------------------------------------
b---------------------------------------
g----11-------------------------------11
d---------12---------------------12----- 2x
a--------------13--------13-------------
E--9----9----9----9-14-9------9-----9---