Sketches of Spain
from Electric Tears

tabbed by Doug Cartwright (assassin252@kidrock.com)

tuning = eb Bb Gb Db Ab Eb

acoustic rhythm (palm mute)
e------------------------------------------------------------------
B------------------------------------------------------------------
G------------------------------------------------------------------
D------5-------5---------------------------------------------------
A----2---2---2---2-------------------------------------------------
E--0-------0-------------------------------------------------------

the lead part (explained below)
e------------------------------------------------------------------
B--12-10-12~----12-13-15-17-15-12h13-12s10s12~---12-13-15-17-19-12-
G------------------------------------------------------------------
D------------------------------------------------------------------
A------------------------------------------------------------------
E------------------------------------------------------------------

continued
e------------------------------------------------------------------
B-13~-12h13p12s13-13~~----13-12-10~--8-10-12-5-5~~---5-7-9-10-5-5--
G------------------------------------------------------------------
D------------------------------------------------------------------
A------------------------------------------------------------------
E------------------------------------------------------------------

continued
e------------------------------------------------------------------
B--5-7-9-10~-7s4~---------10p8-7h8-5~------------------------------
G------------------------------------------------------------------
D------------------------------------------------------------------
A------------------------------------------------------------------
E------------------------------------------------------------------

(0:50)
e--12p10h12--12-14-15-17-15-14-12-10-10s8s10--12-10-10-8-10--12-10-12-
B---------------------------------------------------------------------
G---------------------------------------------------------------------
D---------------------------------------------------------------------
A---------------------------------------------------------------------
E---------------------------------------------------------------------

e-------------------------------------------------------------------------
B--13-12-10~--8-10-12-5-5~~--5-7-9-10-5-5---5-7-9-10~-7s4~---10p8-7h8-5~--
G-------------------------------------------------------------------------
D-------------------------------------------------------------------------
A-------------------------------------------------------------------------
E-------------------------------------------------------------------------

The lead part is played three times. The first time is on acoustic, exactly as tabbed. The second time is on electric, where he bends the strings instead of hammering and pulling off, adds a few twiddles, and uses a slight delay. However,
it sounds fine playing the solo exactly as on the acoustic, but with bends, and I can't work out most of the little bits
he does. Maybe I'll correct this later. The third time through is exactly as tabbed, and both the acoustic and electric play it. I have not tabbed all the rhythm part because I'm not great with working out open string chords. However, I know it ends on a harmonic 12th fret on the high e. As a note, this is an interesting song to do with another guitarist in a soundcheck or rehearsal or whatever if you're in a band. One plays the acoustic, one the electric. Play about, it's good for doing this.