Shock Therapy Side Show
from Island of Lost Minds

as tabbed by Jeremy Deane

Use a 7 string tuned down to A

wedge one {x4}
----------------------------------------------------
----------------------------------------------------
----------------------------------------------------
-----8-----------8----8-----------------------------
-----8-----------8----8-----------------------------
-----6-----------6----6-----------------------------
--------0--0--0----0-----0-0-0-0-0-0-0-0------------palm mute it

riff 2 {x2}
-----------------------------------------------
-----------------------------------------------
-----------------------------------------------
---------3----4--------7---6------------------- accent and let ring
--2------3----4--------7---6-------------------
--2------1----2--------5---4-------------------
--0--------------------------------------------

wedge 3 {x8}
------------------------------------------------
------------------------------------------------
------------------------------------------------
------------------------------------------------
-------------9----9-----8------8----8----8------
--7-----7---------------------------------------
-----0-----0---0-----0-----0-----0-----6----6---

riff 4 {x2}
-------7-8-9--------7-8-10--------7-8-9----15-15-15-15-15----
-------6-7-8--------6-7-9---------6-7-8----14-14-14-14-14----
-------4-5-6--------4-5-7---------4-5-6----12-12-12-12-12----
-------------------------------------------------------------
-4-4----------4-4------------4-4-----------------------------
-4-4----------4-4------------4-4-----------------------------
-2-2----------2-2------------2-2-----------------------------

riff 5 {x4}
----------------------------------------------------------------
----------------------------------------------------------------
----------------------------------------------------------------
----------------------------------------------------------------
----------------------------------------------------------------
---------------3-3-3-3-3-3-----6-6-6-6-6-6---5-5-5-5-5-5--------
--2-2-2-2-2-2---------------------------------------------------

riff 6 {x4} small pause after 2nd time
---------------------------------------------------------------
---------------------------------------------------------------
---------------------------------------------------------------
---------------------------------------------------------------
-3-3-3-3-3-3---------------------------------------------------
-------------3-3-3-3-3-3---------------------------------------
-------------------------6-6-6-6-6-6----3-3-3-3-3-3------------

riff 7
?????? it's really hard to hear them harmonknees!!!

(back to riff 1 {x8})

riff 8 {x2}
---------3------------------3----------3-----------------3-------3---------------3-----
------------4------------4----------------4-----------4------------4----------4--------
---------------0------0----------------------0-----0------------------0-----0----------
--5---------------5------------5----------------5-----------5------------5-----------4-
--5----------------------------5----------------------------5------------------------4-
--3----------------------------3----------------------------3------------------------2-
---------------------------------------------------------------------------------------

(back to riff2 {1time})

(back to wedge3 {x4})----end