Scraps by Buckethead
from Giant Robot NTT

tabbed by siknsyko, special thanks to Bucketfan-friend

distortion and delay

/= slide, ^=bend string, |one number incased in here|= hold note

e|----------------|--------------------|---------------|--------------------|
B|-----12-10-12---|--------------------|-----12-10-12--|--------------------|
G|--9-------------|-9--11-11/12--11--7-|--9------------|-9--11-11/12--11--7-|
D|----------------|--------------------|---------------|--------------------|
A|----------------|--------------------|---------------|--------------------|
E|----------------|--------------------|---------------|--------------------|

e|------------------------------|---|----|--------10-8-----|-----|-3-3-2---|---|
B|------------------------------|---|----|-7-8-10------12--|-12\\|-------3-|---|
G|--11--11-12-12/14-12--11-12-9-|-9-|-11-|-----------------|-----|--------2|-2-|
D|------------------------------|---|----|-----------------|--9\\|---------|---|
A|------------------------------|---|----|-----------------|-----|---------|---|
E|------------------------------|---|----|-----------------|-----|---------|---|

e|-3-2-3-2------10-10--8-|-6h7------|---|-----------------|-15-14-----------------------------|
B|---------3/5-----------|------8-8-|-8-|----------8-7----|-------15-----15------15--15-------|
G|-----------------------|----------|---|---7--7-9------7-|---------12-14---12-12--11-------12|
D|-----------------------|----------|---|-9---------------|----------------------------12-14--|
A|-----------------------|----------|---|-----------------|-----------------------------------|
E|-----------------------|----------|---|-----------------|-----------------------------------|

e|-------------|----|-------------------|-----------------------|--------|
B|-------------|----|------12-----------|-----------------------|---12-10|
G|-12-14-12-14-|-14-|-14p12--12---------|---------------------12|-9------|
D|-------------|----|-------------12h14-|----------------12/14--|--------|
A|-------------|----|-------------------|-12-10-12-10-10--------|--------|
E|-------------|----|-------------------|-----------------------|--------|

e|----------------------------|-----------------------------------------|-----------------------|
B|---8-12-10-8-8h10p8--5-7----|-----------------------------------------|-6h7-6h7-6h7-----------|
G|-9-----------------------7-9|-----7-------7-------7--4h5p4------------|-------------7-7-9-9---|
D|----------------------------|-7h9--7--7h9--5--7h9-----------5h7p5--5-4|--------------9------9-|
A|----------------------------|-----------------------------------------|-----------------------|
E|----------------------------|-----------------------------------------|-----------------------|

e|---10--------------------------------------------------------------|------------10-10---8-7|
B|-10--10-10-8-10--10^10-8-10-8--------------------------------------|-7-8-7-5--7------------|
G|------------------------------7-9----------------------------------|-----------------------|
D|---------------------------------9\7------------------------------5|-----------------------|
A|----------------------------------------10-7-10-7-7-10----------7--|-----------------------|
E|---------------------------------------------------------5^-3-0----|-----------------------|

e|-14^-14------|------------------------------|-----------------|---------|
B|------15-----|------------------------------|-----------------|---------|
G|--------12-11|------------------------------|-----------------|-7-7-7-\\|
D|-------------|-12-7-7---7^-----7--7^-5------|-----------------|---------|
A|-------------|-------------5-7--------------|7---7-5----------|---------|
E|-------------|------------------------------|---------5---5^-3|---------|

e|-----------------------------------------|-------------------------15-------------------------|
B|-15^-------------------------------------|----------------------------------------------------|
G|-14^--14-12--14-12-14-15-14^--14--14-12--|-14^--14-12--12--14^---14--14-15-14^--14-12-14--12--|
D|-----------14-------------------12-----14|-----------14---------------------------------14----|
A|-----------------------------------------|----------------------------------------------------|
E|-----------------------------------------|----------------------------------------------------|

e|------------------------------------------12---|-12^-12^-12^-12^-12^-12^-12^/|
B|---12-15-12-17-12--12-15-12---12^---15^-----15^|-15^-15^-15^-15^-15^-15^-15^/|
G|-15--------------15----------------------------|-----------------------------|
D|-----------------------------------------------|-----------------------------|
A|-----------------------------------------------|-----------------------------|
E|-----------------------------------------------|-----------------------------|

e|-12--14-15-12-14-12-----------------------------|
B|-------------------15-12-15---15-13-12-13-12-15-|
G|------------------------------------------------|
D|------------------------------------------------|
A|------------------------------------------------|
E|------------------------------------------------|

e|----------------------------------------------------------------|--------------------|
B|-15-13-12-13-12--11-12-11---10-11-10---8-10-8-------------------|--------------------|
G|---------------------------------------------9-7----------------|--------------------|
D|------------------------------------------------9--7-8-7--------|--------------------|
A|--------------------------------------------------------10-7-10-|-7-5-7--------------|
E|----------------------------------------------------------------|-------4-5--6-5-3-0-|

e|--------------|--------|-----------17^--17^-|
B|--------------|--------|-14^----------------|
G|-9--12--------|--------|-----12-------------|
D|------------5-|-7^p---5|--------------------|
A|-7--10---5-7-7|--------|--------------------|
E|--------------|--------|--------------------|

e|-17-15--------------------------------------14-17-14------14---15-14-12-14-15-14-12-----|
B|------17---12-15-12-13-15-13-12-11-12-11--15--------15--15-------------------------15-12|
G|----------------------------------------14------------14--------------------------------|
D|----------------------------------------------------------------------------------------|
A|----------------------------------------------------------------------------------------|
E|----------------------------------------------------------------------------------------|

e|-----14-13-14------14-15-14-12-14-15-14-12---|
B|---15--------15--15--------------------------|
G|-14------------14----------------------------|
D|---------------------------------------------|
A|---------------------------------------------|
E|---------------------------------------------|

e|------------------------------------------------12-14-15-14-12-10-12-10------------------|
B|-15-12-15^--12-15-12-13--12-13-12-10-12-10^---13------------------------13-15-13-12-13-12|
G|--------------------------------------------12-------------------------------------------|
D|-----------------------------------------------------------------------------------------|
A|-----------------------------------------------------------------------------------------|
E|-----------------------------------------------------------------------------------------|

e|---------------------------------------|-14-15-14-12-16-12--14-12--14-15-14-12----|
B|-10^---10-8-10---8---------------------|--------------------------------------17^-|
G|-----------9--9---9--------------------|------------------------------------------|
D|-------------------9-7-----------------|------------------------------------------|
A|----------------------/10-7-12-10-12---|------------------------------------------|
E|---------------------------------------|------------------------------------------|

e|-------------------|--------------------------------------------------------------------------|
B|-------------------|--------------------------------------------------------------------------|
G|-12/7--11-11-------|----12-11-11-9------------------------------------------------------------|
D|------------12-12-9|-7-9----------12-9---------------------------------------16-17-19-16-17-19|
A|-------------------|------------------12-10-9-10---------------------15-17-19-----------------|
E|-------------------|----------------------------12-10-7--5-3-15-17-19-------------------------|

e|------------------------17-19--|--------------|-------------------|-------------|----|
B|---------17-19--17-19-20-------|---12-10-12---|-------------------|---12-10-12--|-12-|
G|-16-17-19----------------------|-9------------|-9-11-11/12--11-7--|-9-----------|----|
D|-------------------------------|--------------|-------------------|-------------|----|
A|-------------------------------|--------------|-------------------|-------------|----|
E|-------------------------------|--------------|-------------------|-------------|----|

e|-------------------|------------------------|----|--------10-8---|------|
B|-------------------|------------------------|----|-7-8-10------12|-12///|
G|-9-11-11/12--11-7--|-11-11-12/14\12-11-12-9-|-11-|---------------|------|
D|-------------------|------------------------|----|---------------|-9///-|
A|-------------------|------------------------|----|---------------|------|
E|-------------------|------------------------|----|---------------|------|

e|---12-14-15-14---------------------------------|-19-15-14-----------------|--------------|
B|-12-----------15-------------------------------|------------15------------|----10-15-----|
G|----------------14-12-11--11-------------------|----------16--------------|--9------12-11|
D|------------------------12---------------------|---------------17-16---14-|-9------------|
A|----------------------------12-12-10-9---------|--------------------------|--------------|
E|---------------------------------------10-10-12|--------------------------|--------------|

e|---------|---|--------------------------5-7-10-8-7--7----|---------|-------|
B|-8-7-5-7-|-7-|-7-8-7-5-7-3-5-7--8-5-7-8-----------10-10^-|--t13-10-|-10^^^-|
G|---------|---|-------------------------------------------|---------|-------|
D|---------|---|-------------------------------------------|---------|-------|
A|---------|---|-------------------------------------------|---------|-------|
E|---------|---|-------------------------------------------|---------|-------|

e|-------------------------------------------------------|----------------------------|
B|-10p---------------------------------------------------|----------------------------|
G|----9--------------------------------------------------|-9/11-11/12-12/14-14---16-16|
D|--------------7^--5------------------------------------|----------------------------|
A|------------0-------7----------------------------------|-7/9--9/10--10/12-12---14-14|
E|------------------------5/3--3/5--5/12-8-7-8-7---------|----------------------------|

e|-14-15-14----------------|----|-------------|--------|-1515151515151515151515^^14-15^^-|
B|----------12--h15^^-15p--|----|-------------|-----8^-|---------------------------------|
G|-----------------------14|-14-|--/7-9-------|-9-11---|---------------------------------|
D|-------------------------|----|------/9^----|--------|---------------------------------|
A|-------------------------|----|---------/7^-|--------|---------------------------------|
E|-------------------------|----|-------------|--------|---------------------------------|

e|-14-15-14-15-14-12-14-12-10--8-10-8--------8-8-------------------------|
B|-----------------------------------12-10-12---12-10-8------------------|
G|-----------------------------------------------------11-9-11-9--7-9-11-|
D|-----------------------------------------------------------------------|
A|-----------------------------------------------------------------------|
E|-----------------------------------------------------------------------|

e|-------------------------------------------------|---10---15-14-|-14-|
B|---------------------------------------------12-12-12--12-------|----|
G|-7-9-----------------------------------11-12-----|--------------|----|
D|----10-9-10-9--9-9-------------------14----------|--------------|----|
A|-------------10---10-9-10-9--------14------------|--------------|----|
E|---------------------------10/12-15--------------|--------------|----|

e|-12-14-15-10-8-7--------------|---------------------------|---|-----------------------|
B|----------------10-8--7-------|---------------------------|---|-----------------------|
G|------------------------9-7-5-|---------------------------|---|-----------------------|
D|------------------------------|-9-7-5---------------7-5--4|-4-|-5-2--4-0-2-4--5-2-4-0-|
A|------------------------------|------9----7-5-------------|---|-----------------------|
E|------------------------------|---------------8-7---------|---|-----------------------|

e|------------------------------------|
B|------------------------------------|
G|-------------------------2----------|
D|-4-0-2-4--5-2-4-0--2-4-5---4-5-4-2-4|
A|------------------------------------|
E|------------------------------------|

e|-----------------|---|-----------------|---|--------------|---|----|---|
B|-----------------|---|-----------------|---|--------------|---|----|---|
G|-----------------|---|------7---7------|---|--------------|---|----|---|
D|-5-4-2-4--5-4-2-4|-4-|-4-4-5-6-5-6-5-9-|-9-|-9-7-5--4-5-7-|-7^|-5--|-7-|
A|-----------------|---|-----------------|---|--------------|---|--7-|---|
E|-----------------|---|-----------------|---|--------------|---|----|---| slide into solo

faded ending solo - play as fast as possible

e|-10-12-14-10-12-14-t15-14-t15-14-12-10-----------------------------------------------------------------------------------------------------
B|--------------------------------------13-12-13-12-10---------------------------------------------------------------------------------------
G|----------------------------------------------------12-11-12-11-9-11-9------------------------------------------------------------14-16-17-
D|----------------------------------------------------------------------12-12-10-9------------------9 10-12-----------------14-16-17---------
A|----------------------------------------------------------------------------------------10-9-10-12----------------14-15-17-----------------
E|--------------------------------------------------------------------------------10-12-14------------------14-15-17-------------------------

e|---------------------------17-19-20-22^^|-22^-|-24-19-24-24-19-24-19-19---24-19-24-24-19-24-19-19-------19-22---|
B|-------------------17-19-20-------------|-----|-------------------------------------------------------20--------|
G|-19--------16-17-19---------------------|-----|--------------------------------------------------19-21----------|
D|---16-17-19-----------------------------|-----|-----------------------------------------------------------------|
A|----------------------------------------|-----|-----------------------------------------------------------------|
E|----------------------------------------|-----|-----------------------------------------------------------------|