Scapula by Buckethead
from Giant Robot NTT

tabbed by Chris Moss

this is just a little different from Monsters and Robots but still a superb song.
the first riff is the same as M & R so the first riff is thanks to siknsyko.

main riff
e----------------------------------|
b----------------------------------|
g----------------------------------|
d----------------------------------|
a--3-5-5-5-5-7-5-5-5-5-3-5-5-5-8---|
E--x-x-x-x-x-x-x-x-x-x-x-x-x-x-x---|
texas chainsaw sound
e---4^-- bend up slowly to a full tone
b-------
g-------
d-------
a-------

"that's right blame me" bit
e--------------------------------------------
b--------------------------------------------
g--------------------------------------------
d--7--9-9-9--7--9-9-9--12--7--9-9-9----------
a--7--9-9-9--7--9-9-9--12--7--9-9-9----------
E--5--7-7-7--5--7-7-7--10--5--7-7-7----------