Scapula by Buckethead
from Monsters and Robots

tabbed by siknsyko

main riff

"what's up slobbies?????"

palm mute

e||-----------------------------|-----------------------------|
B||-----------------------------|-----------------------------|
G||-----------------------------|-----------------------------|
D||-x-x-x-x-x-x-x-x-x-x-x-x-x---|-x-x-x-x-x-x-x-x-x-x-x-x-x---|
A||-3-5-5-5-7-5-5-5-3-5-5-5-8---|-3-5-5-5-7-5-5-5-3-5-5-5-8---|
E||-x-x-x-x-x-x-x-x-x-x-x-x-x---|-x-x-x-x-x-x-x-x-x-x-x-x-x---|

alternate riff

e||-----------------------------|
B||-----------------------------|
G||-----------------------------|
D||-x-x-x-x-x-x-x-x-x-x-x-x-x---|
A||-3-5-5-5-7-5-5-5-3-5-5-5-O---|
E||-x-x-x-x-x-x-x-x-x-x-x-x-x---|

'chorus' riff

e||----------------------------------|
B||----------------------------------|
G||----------------------------------|
D||-9-7-9---7-9-7-9--12---7-9-7-9----| "what's up slobbies?????"
A||-9-7-9---7-9-7-9--12---7-9-7-9----|
E||-7-5-7---5-7-5-7--10---5-7-5-7----|