Pure Imagination

tabbed by Treebeard

e--------------------------------|
b-----------------7-8-7-8-7-8-7--|
g-----7-----7-------------------7|
d---5-----5-----5----------------|
a-7-----7-----7------------------|
e-----------------0--------------|
come with me...

e--------------------------------|
b--------------------------------|
g-----4-5-7-4-2------------------|
d---5-----------5-4-5-4-5-4-5-4--|
a-7-----------------------------5|
e--------------------------------|
take a look...

e-3-5-3-5-3-3-2----|---------------|
b---------------3--|0-1-0-1-0-----3|
g-----------------4|------------4--|
d------------------|----------5----|
a-3-----------2----|0--------------|
e------------------|---------------|
if you want to view...

e-2-3-2-3-2---0-2|-0-2-0-2-0-0-2-3-4-5|
b-----------2----|--------------------|
g-4-----------4--|--------------------|
d----------------|-----------2-4-5-6-7|
a----------------|--------------------|
e----------------|--------------------|
anything you want to....




as tabbed by ?

intro & outro:
--18-17-18--
-----------------
-----------------
-----------------
-----------------
------------------

----------------------8h9p8h9p8h9p8----
------9-----9--------------------------------9--
----6-----6-----6-------------------------------
--8-----8-----8---------------------------------
---------------------------------------------------
---------------------------------------------------
come with me and you'll be in a world of pure imagination

---------------------------------------------
------6-7-9-6------------------------------
----6-------------8-6-5h6p5h6p5----
--8--------------------------------------6--
---------------------------------------------
---------------------------------------------
take a look and you'll see into your imagination

----------------------8h9p8h9p8h9p8----
------9-----9--------------------------------9--
----6-----6-----6-------------------------------
--8-----8-----8---------------------------------
---------------------------------------------------
--------------------------------------------------
we'll begin with a spin traveling in the world of my creation

-----------------------------8---
------6-7-9-6------------------
----6-------------8-6-5-------
--8------------------------------
----------------------------------
----------------------------------
what we'll see will defy explanation

--8h9p8h9p8--8------------------------------------------------
-----------------------9-----------------------------------------9--
-------------------------10-10h11p10h11p10------10-----
--------------------------------------------------------11----------
---------------------------------------------------------------------
---------------------------------------------------------------------
if you want to view paradise simply look around and view it

--8h9p8h9p8---------------8--
------------------------------12----
--------------------------------------
----------------------10-------------
--------------------------------------
--------------------------------------
anything you want to do it

--6h8p6h8p6----------------------
---------------------------------------
---------------------------5-6-7-8--
----------------------8----------------
----------------------------------------
----------------------------------------
want to change the world there's nothing to it

-----------------------8h9p8h9p8h9p8----
------9-----9----------------------------------9--
----6-----6-----6--------------------------------
--8-----8-----8----------------------------------
---------------------------------------------------
---------------------------------------------------
there is no life i know to compare with pure imagination

----------------------------8------------
------6-7-9-6--------------------------
----6-------------8-6-5------5-5-6--
--8--------------------------------------
------------------------------------------
------------------------------------------
living there you'll be free if you truly wish to be

--8h9p8h9p8-8-------------------------------------------
-----------------------9------------------------------------9--
-------------------------10h11p10h11p10------10----
-----------------------------------------------------11-------
----------------------------------------------------------------
----------------------------------------------------------------
if you want to view paradise simply look around and view it

--8h9p8h9p8------------8--
--------------------------12----
---------------------------------
---------------------10---------
---------------------------------
---------------------------------
anything you want to do it

--6h8p6h8p6---------------------
---------------------------------------
---------------------------5-6-7-8--
----------------------8---------------
---------------------------------------
---------------------------------------
want to change the world there's nothing to it

----------------------8h9p8h9p8h9p8----
------9-----9---------------------------------9--
----6-----6-----6--------------------------------
--8-----8-----8---------------------------------
--------------------------------------------------
---------------------------------------------------
there is no life i know to compare with pure imagination

----------------------------8-------------
------6-7-9-6---------------------------
----6------------8-6-5-------5-5-6--
--8--------------------------------------
------------------------------------------
--------------------------------------------
living there you'll be free if you truly wish to be