Park Theme by Buckethead
from Bucketheadland

tabbed by Jeff Peters

intro/main riff
|----------------------------------------------------------------|
|----------------------------------------------------------------|
|----------------------------------------------------------------|
|-----5-5-4-4---------------------5-5-5-5-4-4-4-4----------------|
|-2-2---------5-5-4-4-5---2-2-2-2----------------5-5-5-5-4-4-5---|
|-----------------------3--------------------------------------3-|

Crazy Train type part...much thanks to Martin Wong for help with this part
|-------------------------------------------------|
|-------------------------------------------------|
|-------------------------------------------------|
|------------------------------------7-----5------|
|-----4---5---4~-----5-5-4-5----------------------|
|-2-2---2---2--------3-3---------3-3---3-3--------|

|-------------------------------------------------|
|-------------------------------------------------|
|------------------------7p6p4--------------------|
|------------------------------7p6p4--------------|
|-----4---5---4~----5-5--------------7p5p4--------|
|-2-2---2---2-------3-3--------------------7p5p4--|

choppy rhythm part
|---------------------|
|---------------------|
|---------------------|
|---------------------|
|---4----4--5-5-------|
|-0-2--0-2--3-3-0-2~--|

melodic line that follows
|-----------------------------------------------------------------|
|-12-12-12-12-12-12h14-14-14-14-14-14-14h15-15-15-15-15--20-19-17-|
|-----------------------------------------------------------------|
|-----------------------------------------------------------------|
|-----------------------------------------------------------------|
|-----------------------------------------------------------------|