I Love My Parents by Buckethead
from Giant Robot
Sony Records 1994

Transcription by Martin Wong (martin7218@earthlink.net)

Verse 1:
E----------------------------------------------------------------------
B--13-------------12---------------------------------------------------
G-----0--------------0------------12-----------------------------------
D-------14-------------14-------14-------------------------------------
A--15-------------------------15---------------------------------------
E----------------------------------------------------------------------

E----------------------------------------------------------------------
B--13------12------12s8-8----------------------------------------------
G-----0-------0--------------------------------------------------------
D-------14s12---12-----------------------------------------------------
A--0-------------------0-----------------------------------------------
E----------------------------------------------------------------------

E----------------------------------------------------------------------
B--12s8---------------10-10----10-10----10-10--12h13p12--12s8----------
G----------------------------------------------------------------------
D----------------------------------------------------------------------
A---------------------8------8--------8--------------------------------
E--0----0--0--0--0-0---------------------------0---------0----0-0--0-0-

E----------------------------------<12>--------------------------------
B--10p8-8----8-----13s12-12----<12>------------------------------------
G---------10-----------------------------------------------------------
D------------------10s9-----10-----------------------------------------
A--8-------------------------------------------------------------------
E----------------------------------------------------------------------

E--20--19--15----------------------------------------------------------
B-------------------13-------------------------------------------------
G--17--16--12-----16---------------------------------------------------
D---------------14-----------------------------------------------------
A--------------0-------------------------------------------------------
E----------------------------------------------------------------------

E--20--19--15----------13h15p13-13-12-13~------------------------------
B--------------------13------------------------------------------------
G--17--16--12-----14---------------------------------------------------
D---------------15-----------------------------------------------------
A----------------------------------------------------------------------
E----------------------------------------------------------------------

E--------13h15p13-13-12-13-12-10-12------------8-----------------------
B------13--------------------------------------------------------------
G----14--------------------------------------9-------------------------
D--15-------------------------------------12---------------------------
A--------------------------------------10------------------------------
E------------------------------------8---------------------------------

Verse 2:
E----------------------------------------------------------------------
B--13-------------12---------------------------------------------------
G-----0--------------0------------12-----------------------------------
D-------14-------------14-------14-------------------------------------
A--15-------------------------15---------------------------------------
E----------------------------------------------------------------------

E----------------------------------------------------------------------
B--13------12------12s8-8----------------------------------------------
G-----0-------0--------------------------------------------------------
D-------14s12---12-----------------------------------------------------
A--0-------------------0-----------------------------------------------
E----------------------------------------------------------------------

E----------------------------------------------------------------------
B--12s8---------------10-10----10-10----10-10--12h13p12--12s8----------
G----------------------------------------------------------------------
D----------------------------------------------------------------------
A---------------------8------8--------8--------------------------------
E--0----0--0--0--0-0---------------------------0---------0----0-0--0-0-

E-------------------------------------------------------10-12----------
B--10p8-8----8--10p8-8----8-----------------------------------13~------
G---------10-----------10---10-9-7-------------------12----------------
D------------------------------------------10-----14-------------------
A--8------------8------------------------------10----------------------
E----------------------------------8-10s12-----------------------------