Machete by Buckethead
from Colma

tabbed by Jeff Peters

just the first solo. this is a good tab, it's just kinda hard to tab out the way its played

main pattern - let ring A5
|--------------------------------------|
|--------------0-----------------------|
|----------5------------------5----2---|
|------7------------------3--------2---|
|--0-------------------------------0---|
|--------------------------------------|

1st solo
|-------------------------7--7/8p7------------------------------------|
|--5~~~~~~h6------------5--5-------8-8--------------------------------|
|-------------5----------------------------7b*-7b*p5--7-5----------5--|
|----------------------------------------------------7----7p5----5----|
|-------------------------------------------------------------7-------|
|---------------------------------------------------------------------|

1 step bend
cont'd /--------\
|---5-5-----5h7/8-10b-------(10)-8--7-8------------------5-7--7/8-------------|
|-8-------------------------------------8-8/5--5--6--8-8----------8--(8)/5-6--|
|---------------------------------------------------------------------------5-|
|-----------------------------------------------------------------------------|
|-----------------------------------------------------------------------------|
|-----------------------------------------------------------------------------|