Lone Sal Bug by Buckethead
from Colma

tabbed by Limpy Hodzic

-------------------------------------------------
----8-----6------4-----6----3----4---------------
----8-----7------5-----7----3----5---------------
----8-----8------5-----8----5----6---------------
----6-----8------3-----8----5----6---------------
-----------------------------3-------------------


thats the intro chords, then the lead part comes

-----------------------------------------------------------
---8----8-9-11----6----4-----4-6-8----3--------------------
-----------------------------------------------3--0--5~----
-----------------------------------------------------------
-----------------------------------------------------------
-----------------------------------------------------------

play that a couple of times then the next lead part comes

-----------------------------------11-10--10----11---------
------11--11------8-9-11-------------------------------11--
--8-------------------------8------------------------------
----------------------------------------------------------
----------------------------------------------------------
----------------------------------------------------------

in 2:22 of the song you play this lick

--10-11-13-13-----11--10--11-10------------8----------
----------------------------------------11--8---------
------------------------------------------------------
------------------------------------------------------
------------------------------------------------------
------------------------------------------------------

--15-15--13----11-----11--10--11---8-------------------- ---
-----------------------------------------------8------------
--------------------------------------------------8---10----
------------------------------------------------------------
------------------------------------------------------------
------------------------------------------------------------

--10--11--10------10--11-----------------------8------------
------------------------------11--------11--8---------------
------------------------------------------------------------
------------------------------------------------------------
------------------------------------------------------------
------------------------------------------------------------

--11-10-----------------------------------------------------------------------
----------11--------11-/slide-13----------------------9--8--8----11-----------
---------------12-------------------------------------------------------10----
------------------------------------------------------------------------------
------------------------------------------------------------------------------
------------------------------------------------------------------------------

then the second lead part comes