Jordan

as tabbed by Scott McCollum

Using kill switch and wah
|----12--0--0--12--0--12--0--12--0--10--12------------------------------|E
|-------------------------------------------------------10--12--10~-----|A
|-----------------------------------------------------------------------|D
|-----------------------------------------------------------------------|G x3
|-----------------------------------------------------------------------|B
|-----------------------------------------------------------------------|E

|--------2--2--3----3--3--0--0--0--0----------------2-2-2-3-3-3-3-3-3-0--0-0--|E
|-----------------------------------------------------------------------------|A
|-4--4-------------------------------------4-4-4------------------------------|D x2
|-----------------------------------------------------------------------------|G
|-----------------------------------------------------------------------------|B repeat back ^
|-----------------------------------------------------------------------------|E

# represents 10, * represets 11, 12 = @, 13 = %, 14 = & to keep on track.

He mostly uses this outro. It's a powerchord.
|-2--2-2--2-3--3-3--4-4-4-4-5--5-5--6-6--6-6--7-7-7-7-8--8-8-9-9--9-9-10-10-10-10-12~--|E
|-4--4-4--4-5--5-5--6-6-6-6-7--7-7--8-8--8-8--9-9-9-9-#--#-#-*-*-- *- *-@-@-@- @-------|A
|--------------------------------------------------------------------------------------|D
|--------------------------------------------------------------------------------------|G
|--------------------------------------------------------------------------------------|B
|--------------------------------------------------------------------------------------|E






as tabbed by Charles Montoya

Eb|----------------|----------------||
Bb|----------------|----------------||
Gb|----------------|----------------||
Db|----------------|----------------||
Ab|----------------|------10h11p10--||
Eb|-12-12-12-12-12-|12-12-----------||

with whammy and kill switch, whammy set to 2 octaves higher

Eb|----------------|----------------||
Bb|----------------|----------------||
Gb|----------------|----------------||
Db|----4-----------|---4------------||
Ab|-------4-5------|------4--5------||
Eb|-3-----------2~-|-3----------2~~-||

with kill switch, you can figure out the rhythm

usually at the end of Jordan, Buckethead plays something like this as an outro

Eb|----------------|----------------|----------------||
Bb|----------------|----------------|----------------||
Gb|----------------|----------------|----------------||
Db|----------------|----------------|----------------||
Ab|----------------|----------------|----------------||
Eb|-2-3-4--5-6-7-8-9-10-11-12-13-14-15-16~~~~--------||
with kill switch