I Come In Peace by Buckethead
from Giant Robot


as tabbed By lukesull2002@hotmail.com

Key: - F#

Intro Lead Uses Box 4 and 1 of the Natural Minor Scale

e|-----12--9--12--------12-10-9------12--9--12--------9--14--16-16b17----14h16p14--12--|
B|-10-------------10-------------10-------------10-------------------------------------|
G|-------------------------------------------------------------------------------------|
D|-------------------------------------------------------------------------------------|
A|-------------------------------------------------------------------------------------|
E|-------------------------------------------------------------------------------------|

e|-----12--9--12--------12-10-9------12--9--12--------9--14--16-16b17----14h16p14--12--------|
B|-10-------------10-------------10-------------10-------------------------------------10----|
G|-------------------------------------------------------------------------------------------|
D|-------------------------------------------------------------------------------------------|
A|-------------------------------------------------------------------------------------------|
E|-------------------------------------------------------------------------------------------|

Main Rhythm Let your own ears guide you.
e|--------------|    |--------------|
B|--------------|    |--------------|
G|--------------| OR |--------------|
D|---------4----|    |---------4----|
A|-9-7-6-7-4----|    |-9-7-6-6-4----|
E|-7-5-4-5-2----|    |-7-5-4-4-2----|
 PM-------           PM-------


e|-------------------------------| If you think the second option from above just
B|-------------------------------| use that but with the extra bit of F#5.
G|-------------------------------|
D|---------4------4------4-------|
A|-9-7-6-7-4--4-4-4--4-4-4--4-4--|
E|-7-5-4-5-2--2-2-2--2-2-2--2-2--|
 PM-------    ---    ---    ---

Outro (Fast Bit)
I put the timing for this bit beause of the speed of it.
   1 & 2 & 3 & 4 &
e|--------------------|
B|--------------------| For the variations just do single half
G|--------------------| beat stabs at the F#5 and just Palm Muted
D|-4---4--------------| 16th's at the F#5.
A|-4---4---4444-4444--|
E|-0h2-0h2-2222-2222--|
 PM        ---------

Boxes 1 and 4 of the F# Natural Minor scale R = Root Note B = Sounds good if bent
The notes of F# Aeolian mode, or Natural Minor, are: F#, G#, A, B, C#, D, E.

Box 4
e|----------------------------------------------------9-10--12-|
B|-----------------------------------------9-10--12------------|
G|----------------------------------9--11----------------------|
D|-----------------------9--11-12------------------------------|
A|------------9--11-12-----------------------------------------|
E|-9-10--12----------------------------------------------------|
   R   R    B

Box 1
e|------------------------------------------------------14--16-17--|
B|------------------------------------------14-15--17--------------|
G|-------------------------------13-14--16-------------------------|
D|-----------------------14--16------------------------------------|
A|------------14--16-17--------------------------------------------|
E|-14--16-17-------------------------------------------------------|
   R                         R          B          B




as transcribed by Justin Binge Buddy

i did it from memory...so sue me...if you're wondering where the solo is,
you've got to be kidding

Intro
E|----12--9--12--------12-10-9-----12--9--12--------9-14-16-
B|10-------------10------------10-------------10------------
G|----------------------------------------------------------
D|----------------------------------------------------------
A|----------------------------------------------------------
E|----------------------------------------------------------
|
|
E|----------------------------------------------------------
B|--------5----------------------------2--------------------
G|------6---6------------------------2---2------------------
D|----9-------9--------------------6-------6----------------
A|--7-----------7----------------4-----------4--------------
E|5---------------5------------2---------------2------------

E|17~~-----------------16-17-16-
B|------------------------------
G|------------------------------
D|------------------------------
A|------------------------------
E|------------------------------
|
|
E|------------------------------
B|------------10----------------
G|---------11----11-------------
D|------14----------14----------
A|---12----------------12-------
E|10----------------------10----

BOOM....BOOM....

E|--------------
B|--------------
G|--------------
D|--------------
A|--------4-----
E|5-3-6-3-2----- (hard to tell if this is right, BH palm mutes it so much)

Fill 1 T T T T T
E|------------------------------------------
B|------------------------------------------
G|------------------------------------------
D|-------4(16)~---------------4(16)~--------
A|--------------4(14)~----------------------
E|---------------------2(14)~--------2(16)~-

Fill 2(!) T T T T T T T T T T T T T T T
E|-----------9h13h17h21p17p13p9\8h12h16h20h16p12p8\7h11h15h19p15p11p7\6h10h14h18p14p10p6---------
B|--------10----------------------------------------------------------------------------h15h19p15
G|------10---------------------------------------------------------------------------------------
D|----11-----------------------------------------------------------------------------------------
A|8h12-------------------------------------------------------------------------------------------
E|-----------------------------------------------------------------------------------------------

T T T T T T
E|------------------------------------------------------------------------------
B|p11p7\6h10h14h18p14p10p6\5h9h13h17p13p9p5-------------------------------------
G|-----------------------------------------h13h17p13p9p5(bend this up a little)-
D|------------------------------------------------------------------------------
A|------------------------------------------------------------------------------
E|------------------------------------------------------------------------------

Chorus
E|--------------------------------
B|--------------------------------
G|--------------------------------
D|--------------------------------
A|--------4-4-----4-4-----4-4-----
E|5-3-6-3-2-2-2-2-2-2-2-2-2-2-2-2-

Drum Fill
E|------------------------|--
B|------------------------|--
G|------------------------|-- HAHAHAHAHAHA!!!
D|------5~----------7~----|--
A|4~----3~----6~----5~----|4-
E|2~----------4~----------|2-

Death Metal Outro
E|-----------------|
B|-----------------|
G|-----------------|
D|-----------------|
A|2-4-2-4----------|
E|0-2-0-2-22222222-| aaaaaand i think you can finish it off yourself