Beware Of The Holding Funnel
from Cobra Strike 2

as transcribed by Martin Wong

Section 1:
-3-----7-----10-----7-----3--------------------------------------------
-3-----7-----10-----7-----3--------------------------------------------
-5-----9-----12-----9-----5--------------------------------------------
-5-----9-----12-----9-----5--------------------------------------------
-3-----7-----10-----7-----3--------------------------------------------
-----------------------------------------------------------------------

-3----3--------3--------3---------7----7--------7--------7-------------
-3------3----3---3----3---3-------7------7----7---7----7---7-----------
-5--5-----5--------5--------5-----9--9-----9--------9--------9---------
-5--------------------------------9------------------------------------
-3--------------------------------7------------------------------------
-----------------------------------------------------------------------

-10-----10----------7----7--------3----3--------3--------3---------3---
-10--------10-------7------7------3------3----3---3----3---3-------3---
-12--12-------12----9--9-----9----5--5-----5--------5--------5-----5---
-12-----------------9-------------5--------------------------------5---
-10-----------------7-------------3--------------------------------3---
-----------------------------------------------------------------------

-------------------------------------5----3----------------------------
-------------------------------------3------3--------------------------
-------------------------------------5--5-----5------------------------
-------------------------------------5---------------------------------
-------------------------------------3---------------------------------
-0-0-0-0---0-0-0-0---0-0-0-0---0-0---------------0-0-0-0--0-0-0-0--0-0-

-3----3--------3--------3---------7------------------------------------
-3------3----3---3----3---3-------7------------------------------------
-5--5-----5--------5--------5-----9------------------------------------
-5--------------------------------9------------------------------------
-3--------------------------------7------------------------------------
--------------------------------------0-0-0-0---0-0-0-0--0-0-0-0--0-0--

-10-----10----------7----7--------3------------------------------------
-10--------10-------7------7------3------------------------------------
-12--12-------12----9--9-----9----5------------------------------------
-12-----------------9-------------5------------------------------------
-10-----------------7-------------3------------------------------------
--------------------------------------0-0-0-0---0-0-0-0----------------

-----------------------------------------------------------------------
-----------------------------------------------------------------------
-----------------------------------------------------------------------
-----------------------------------------------------------------------
-----------------------------------------------------------------------
-0-0-0-0---0-0-0-0---0-0-0-0---0-0-0-0---------------------------------

-----------------------------------------------------------------------
-----------------------------------------------------------------------
-----------------------------------------------------------------------
-----------------------------------------------------------------------
-----------------------------------------------------------------------
-0-0-0-0---0-0-0-0---0-0-0-0---0-0-0-0---------------------------------

-----------------------------------------------------------------------
-----------------------------------------------------------------------
-----------------------------------------------------------------------
-----------------------------------------------------------------------
-----------------------------------------------------------------------
-0-0-0-0---0-0-0-0---0-0-0-0---0-0-0-0---------------------------------

Solo 1:
-----------------------------------------------------------------------
-----------------------------------------------------------------------
-----------------------------------------------------------------------
-7h9~-7h9p7s5--7-7s9-9~--9s12s14s9--7h9p7s5--4-5p4s2~------------------
-----------------------------------------------------------------------
-----------------------------------------------------------------------

-----------------------------------------------------------------------
-----------------------------------------------------------------------
-----------------------------------------------------------------------
---5h7-7s9-9~--9s12s14s9-9~---7h9p7s5~---5h7p5s4~-~4brs2~--------------
-7---------------------------------------------------------------------
-----------------------------------------------------------------------

----------------------------------------------------------10---10~-----
---8-10-10p8s7~-7h8p7h8p7h8p7~--7h8p7h8p7h8-----------7h8----8---------
-9------------------------------------------7-h9-9~--------------------
-----------------------------------------------------------------------
-----------------------------------------------------------------------
-----------------------------------------------------------------------

                      1 2 1 1
-----------------------------------------------------------------------
-----8-----------------------------------------------------------------
-----------------------------------------------------------------------
-7h9-------5~--5h7-7s9~--9s12-12p10--9--10-----------------------------
-------------------------------------------10--9h10p9s7----------------
--------------------------------------------------------0--------------

-----------------------------------------------------------------------
-----------------10-10s8~---8s10-10-12~---10-10s8~---------------------
-------------7~--11-11s9~---9s11-11-12~---11-11s9~---------------------
-----5h7-7s9----------------------------------------9-9-9p7--7-7-7h9---
-5h7-------------------------------------------------------------------
---------------------------------------------------------------------0-

-----------10~---------------------------------------------------------
-7-7--8-8~-----------7-------8~----------------------------------------
-----------------------------------------------------------------------
-----------------7h9----9s10----10s9~-----5h7-7s9~---------------------
-----------------------------------------------------------------------
-----------------------------------------------------------------------

Solo II:
-----------------------------------------------------------------------
-----------------------------------------------------------------------
----12----12~--12h14p12---------12----12~--14brp12---------------------
-14----14---------------14~--14----14--------------14------5b----------
---------------------------------------------------------7----7--------
------------------------------------------------------0~--------0-0-3~-

-----------------------------------------------------------------------
---------------------------------------------------15------------------
---------------------------12-----14b-14-12-14b~------14b-14--12-14-12-
---------------------12-------14---------------------------------------
-5h7p5h7p5h7p5h7--14----14---------------------------------------------
-----------------------------------------------------------------------

?? 1 2 1
-----------------------------------------12-12------------------------
---------------------------------12-------------15-15--12~------------
-11s12------------------------12-----14---------------------14-12-----
-------12--------12-14p12--14-------------------------------------14~-
----------12-14-------------------------------------------------------
----------------------------------------------------------------------

Hold bend & pick
-----------------------------------------------------------------------
-------------------------------------------------15--------------------
------------------------------------12-----14b~-----14b-14-14-14-------
-12h14-14--12h14-14--12h14-14----14----14------------------------------
-----------------------------------------------------------------------
-----------------------------------------------------------------------

Continue holding bend and pick notes
-----------------------------------------------------------------------
-----------------------------------------------------------------------
-14-14-14-14--14-14-14-14--14-14-14-14---14brp12-----------------------
-------------------------------------------------14~-------------------
-----------------------------------------------------------------------
-----------------------------------------------------------------------

------------------------------------12---------------------------------
---------------------------------12----12-15-15b~--15b-15b--15b-15-----
-----------------------12----14b-----------------------------------12~-
-7brp5-7------------------14-------------------------------------------
--------0--------------------------------------------------------------
---------0-3~--0-0-0-0-------------------------------------------------

That's as far as I got...