Hills of Eternity by Buckethead
from Colma

as tabbed by Jeff Peters

main riff
|---------------------------------------------------------------------|
|-9--7-----------------------------9--7-------------------------------|
|-------9--8------------------------------9--8------------------------|
|-------------9----6--7--9----------------------9----6--7--9----------|
|----------------------------7-------------------------------7--------|
|---------------------------------------------------------------------|

|--------------------------------------------|
|--------------------------------------------|
|-8---8h9--6--------------------8---9--11--6-|
|--------------------------------------------|
|--------------------------------------------|
|--------------------------------------------|

chord progression after main riff (barre chords) Bmin Amaj
if you don't know what those chords are here ya go

Bmin__________________Amaj
|--7-------------------5---|
|--7-------------------5---|
|--7-------------------6---|
|--9-------------------7---|
|--9-------------------7---|
|--7-------------------5---|


as transcribed by Martin Wong

  E             E
|----------------------------------------------------------------------
|-9-7-------------------9-7--------------------------------------------
|-----9-8-------------------9-8----------------------------------------
|---------9~--6-7-9-------------9~--6-7-9------------------------------
|-------------------7~--------------------7~---------------------------
|----------------------------------------------------------------------

|-0---------------------0----------------------------------------------
|-0---------------------0----------------------------------------------
|-1---------------------1----------------------------------------------
|-2---------------------2----------------------------------------------
|-2---------------------2----------------------------------------------
|-0---------------------0----------------------------------------------

  B   A    B     A
|----------------------------------------------------------------------
|----------------------------------------------------------------------
|-8--8h9-6~-----8-9-9s11-6~--------------------------------------------
|----------------------------------------------------------------------
|----------------------------------------------------------------------
|----------------------------------------------------------------------

|----------------------------------------------------------------------
|-4-----2-------4-------2----------------------------------------------
|-4-----2-------4-------2----------------------------------------------
|-4-----2-------4-------2----------------------------------------------
|-2--x--0-------2---x---0----------------------------------------------
|----------------------------------------------------------------------

  C#m   A   C#m        A
-----------------------------------------------------------------------
--5----5----5----------5-----------------------------------------------
--6----4----6----------4-----------------------------------------------
--6----2----6----1-2-4-2-----------------------------------------------
--4----0----4----------0-----------------------------------------------
-----------------------------------------------------------------------

-----------------------------------11h12p11----------------------------
-9-9-9--9-9-9~--9-------------12------------12-------------------------
------------------11-9--11s13------------------11-11h13-13~------------
-----------------------------------------------------------------------
-----------------------------------------------------------------------
-----------------------------------------------------------------------

----------11-12-12p11--------------------------------------------------
-------14-------------12-----------------------------------------------
----13-------------------11-11~--8-8h9---------------------------------
-11------------------------------------9s11~---------------------------
-----------------------------------------------------------------------
-----------------------------------------------------------------------

-----------------------------------------------------------------------
---------------------------9h10p9--------------------------------------
---------------------------------11s13~--------------------------------
-9----------------9~--9h11---------------------------------------------
---11s9-7-9-9s11~------------------------------------------------------
-----------------------------------------------------------------------

-----11--12p11---------------------------------------------------------
---12----------12------------------------------------------------------
-13---------------11-11--11-11-11~-------------------------------------
-----------------------------------------------------------------------
-----------------------------------------------------------------------
-----------------------------------------------------------------------

      1 1 2 1 1 1 1
---12p11---------------------------------------------------------------
---------12------------------------------------------------------------
-9----------9s8--------------------------------------------------------
----------------9------------------------------------------------------
------------------9-9-9-9~---------------------------------------------
-----------------------------------------------------------------------

Rhythm For Solo:
----0------------------------------------------------------------------
------4--------4-5p4--5------------------------------------------------
-6------6------4-4p4--4------------------------------------------------
-6--------6----4------2------------------------------------------------
----------------------0------------------------------------------------
-----------------------------------------------------------------------

Solo:
-----------------------------------------------------------------------
------------------9-9h10p9---------------------------------------------
-----------9-9h11----------11s13~--------------------------------------
------9h11-------------------------------------------------------------
-9h11------------------------------------------------------------------
-----------------------------------------------------------------------

----11-11-11--12-12h14-14--12-11--11-11--11h12--------11---------------
---x-------------------------------------------12~--9----12------------
--x---------------------------------------------------------9~---------
-x---------------------------------------------------------------------
-----------------------------------------------------------------------
-----------------------------------------------------------------------

---------------------11h12p11------------------------------------------
-------------------------------12--------------------------------------
----------9-11s13-13--------------11-11-11--11-11-11--11-14-13---------
-----9-11------------------------------------------------------11~-----
-s11-------------------------------------------------------------------
-----------------------------------------------------------------------

----------12---11------------------------------------------------------
-----12-----------12-12~-12--12-12-12--12--12-12-12-12--12p10--12p10s9-
-9-9----9----9---------------------------------------------------------
-----------------------------------------------------------------------
-----------------------------------------------------------------------
-----------------------------------------------------------------------

-----------------------------------------------------------------------
---------------------------9-10p9------------------------9-12-12~------
------8-9--8---9p8----8-9----------11p9-8h9p8----------9---------------
-9-11--------9-----11-------------------------9~--9-11-----------------
-----------------------------------------------------------------------
-----------------------------------------------------------------------

-----------------------------------------12p11-------------------------
-9-9-10-----10p9----------------------10-------12----------------------
--------9~-------9-9----------------9-------------9s8h9s11-------------
----------------------------7--9s11------------------------------------
--------------------------7--------------------------------------------
----------------------7s9----------------------------------------------

-12p11p9---------------------------------------------------------------
---------9-------------------------------------------------------------
-----------9--8-9----9-8-9---------------------------------------------
------------------11-------9-11----9-----9-----------------------------
--------------------------------11----11-------------------------------
-------------------------------------------12-9~-----------------------

Ending:
E E
|----------------------------------------------------------------------
|-9-7-------------------9-7--------------------------------------------
|-----9-8-------------------9-8----------------------------------------
|---------9~--6-7-9-------------9~--6-7-9------------------------------
|-------------------7~--------------------7~---------------------------
|----------------------------------------------------------------------

| |-0---------------------0----------------------------------------------
|-0---------------------0----------------------------------------------
|-1---------------------1----------------------------------------------
|-2---------------------2----------------------------------------------
|-2---------------------2----------------------------------------------
|-0---------------------0----------------------------------------------

  B   A    B     A
|----------------------------------------------------------------------
|----------------------------------------------------------------------
|-8--8h9-6~-----8-9-9s11-6~--------------------------------------------
|----------------------------------------------------------------------
|----------------------------------------------------------------------
|----------------------------------------------------------------------

|----------------------------------------------------------------------
|-4-----2-------4-------2----------------------------------------------
|-4-----2-------4-------2----------------------------------------------
|-4-----2-------4-------2----------------------------------------------
|-2--x--0-------2---x---0----------------------------------------------
|----------------------------------------------------------------------

----------------------------------------------------------------------
-----------------------------------------------------------------------
-8-9p8-6~--8-9-9s11-6~-------------------------------------------------
-----------------------------------------------------------------------
-----------------------------------------------------------------------
-----------------------------------------------------------------------

-----------------------------------------------------------------------
-9-7-------------------9-7---------------------------------------------
-----9-8-------------------9-8-----------------------------------------
---------9~--6-7h9-------------9~--6-7h9-------------------------------
-------------------7~--------------------7~----------------------------
-----------------------------------------------------------------------

-------------9~--------------------------------------------------------
----4-5-----9----------------------------------------------------------
---4-------9-----------------------------------------------------------
--4-------7------------------------------------------------------------
-2-------0-------------------------------------------------------------
-----------------------------------------------------------------------