Haunted Mansion
as played live by Buckethead

tabbed by Charles Montoya

Eb|----------------|----------------|----------------|----------------||
Bb|----------------|----------------|----------------|----------------||
Gb|----------------|----------------|----------------|----------------||
Db|----------------|----------------|----------------|----------------||
Ab|-----4--3-------|----------------|-4--5--4--------|----------------||
Eb|--2---------4---|--2--5--7--3~~--|----------5--7--|--3---2---------||

Eb|----------------|----------------|----------------|----------------||
Bb|----------------|----------------|----------------|----------------||
Gb|----------6-----|-5--------------|----------------|----------------||
Db|--4-------6-----|-5-------6------|-4-------7------|-9-------5------||
Ab|--4-------4-4-4-4-3-3-3-3-6------|-4-------7------|-9-------5------||
Eb|--2-2-2-2-------|---------4-4-4-4|-2-2-2-2-5-5-5-5|-7-7-7-7-3-3-3-3||

Eb|----------------|----------------|----------------|----------------||
Bb|----------------|----------------|----------------|----------------||
Gb|-6-------7------|-6--------------|----------------|----------------||
Db|-6-------7------|-6-------7------|-9-------5------|-4--------------||
Ab|-4-4-4-4-5-5-5-5|-4-4-4-4-7------|-9-------5------|-4--------------||
Eb|----------------|---------5-5-5-5|-7-7-7-7-3-3-3-3|-2--------------||

improvise this riff a lot, use your kill switch if you have one, use a wah,
use some rapid trills like Buckethead loves to use

Eb|----------------||
Bb|----------------||
Gb|----------------||
Db|--2~------------||
Ab|--2~------------||
Eb|--0~------------||

Eb|--12~-----------||
Bb|--12~-----------||
Gb|----------------||
Db|----------------||
Ab|----------------||
Eb|----------------||
with whammy

Eb|----------------|----------------|----------------||
Bb|----------------|----------------|----------------||
Gb|----------------|----------------|------2~--------||
Db|----------------|----------------|------2~--------||
Ab|--2p0-3p0-2h3-2p0--2p0-2p0--3p0--|-2p0--0~--------||
Eb|----------------|----------------|----------------||

Eb|----------------|----------------||
Bb|----------------|----------------||
Gb|----------------|------5~--------||
Db|----------------|------5~--------||
Ab|-2p0-2p0-3p0-2h3|-2p0--3~--------||
Eb|----------------|----------------||

Eb|----------------|----------------|----------------|----------------||
Bb|----------------|----------------|----------------|----------------||
Gb|----------------|----------------|----------------|----------------||
Db|----------------|----------------|----------------|-----8888-8888~-||
Ab|----------------|----4---7p0-6p0-|-4----2----5p0-4p0-2--8888-8888~-|| repeat a few times
Eb|--0--3--0-3p0-3p0--6---6---------|----4---4~------|-----6666-6666~-||

Eb|----------------|----------------|----------------||
Bb|----------------|----------------|----------------||
Gb|----------------|----------------|----------------||
Db|--4-4---4-4-4-4-|---4-4-4---4-4-4|-5~-------------||
Ab|--4-4---4-4-4-4-|---4-4-4---4-4-4|-5~-------------|| repeat a few times
Eb|--2-2-0h2-2-2-2-|-0h2-2-2-0h2-2-2|-3~-------------||

Eb|--7-------------|----------------|----------------|----------------||
Bb|----9-8-7--9----|----------------|----------------|----------------||
Gb|-------------11-|10-9-12---------|--14------------|----------------||
Db|----------------|--------14-13-12|-----16-15-14---|-14-------------||
Ab|----------------|----------------|----------------|----16-15-14----||
Eb|----------------|----------------|----------------|----------------||

Eb|----------------|----------------||
Bb|----------------|----------------||
Gb|----------------|----------------||
Db|----------------|----------------||
Ab|-14-------------|----------------||
Eb|----16-15-14----|-19-18-17-15-15-||

Eb|----------------||
Bb|----------------||
Gb|----------------||
Db|----------------||
Ab|----------------||
Eb|--14-12~~-------||

theres a shred solo here I'm sure you can come up with something on your own,
if not then heres an idea to get you started

Eb|----------------|----------------|----------------|----------------||
Bb|-15-16-17-18-16-|15--------------|----------------|----------------||
Gb|----------------|---15-14-13-15--|-16-------------|----------------||
Db|----------------|----------------|----15-14-13-12-|-13-12----------||
Ab|----------------|----------------|----------------|-------10~------||
Eb|----------------|----------------|----------------|----------------||

     t  t  t      t  t  t                           t  t  t   t  t  t
Eb|--15-14-13---16-|15--14----------|----------------|----------------||
Bb|----------------|--------15--14--|13--------------|----------------||
Gb|----------------|----------------|----15-14-13----|----------------||
Db|----------------|----------------|--------------12|-11-10--15-14-13||
Ab|----------------|----------------|----------------|----------------||
Eb|----------------|----------------|----------------|----------------||

then back to the song

Eb|----------------|----------------|----------------|-----------22b24||
Bb|----------------|----------------|----------------|--17-18-19------||
Gb|----------------|----------------|----------14-15-16---------------||
Db|----------------|----------------|-12-13-14-------|----------------||
Ab|----------------|--------12-13-14|----------------|----------------||
Eb|-1-2-3-4-5-6-7-8|9-10-11---------|----------------|----------------||
PM throughout

Eb|----------------|----------------|----------------|----------------||
Bb|----------------|----------------|----------------|----------------||
Gb|----------------|----------------|----------------|----------------||
Db|----------------|----------------|----------------|----------------||
Ab|----------------|----------------|----------------|----------------||
Eb|--2s15-14-14-14-|-13-13-13-12-12-12-11-11-11-11---|----------------||
with kill switch

Eb|----------------|----------------||
Bb|----------------|----------------||
Gb|----------------|----------------||
Db|----------------|----3-5--4~-----||
Ab|----------------|----3-5--4~-----||
Eb|--2h3p2h3p2h3p2h3p2--1-3--2~-----|| mess around with this riff for a while

Eb|----------------|----------------|----------------|----------------||
Bb|---8--------8---|8------8--------|-10----------10-|----10------10--||
Gb|----------------|-------x--------|----------------|------------x---||
Db|-----9----9---9-|-------9--------|----11----11----|-11---------11--||
Ab|-------10-------|--10~~-10-------|-------12-------|-------12~--12--||
Eb|----------------|----------------|----------------|----------------||

Eb|----------------|----------------||
Bb|-10---10---10---|-10--10---------||
Gb|-x----x----x----|-x---x----------||
Db|-11---11---11---|-11--11---------||
Ab|-12---12---12---|-12--12---------||
Eb|----------------|----------------||

Eb|----------------|----------------|----------------||
Bb|----------------|----------------|----------------||
Gb|----------------|----------------|----------------||
Db|--4-4----4------|-4--4-----4-----|-4-4-----4------||
Ab|--4-4----4------|-4--4-----4-----|-4-4-----4------||
Eb|--2-2-0--2------|-2--2--0--2-----|-2-2--0--2------||

Eb|----------------|----------------|----------------||
Bb|----------------|----------------|----------------||
Gb|----------------|----------------|----------------||
Db|--4-4----4------|-4--4-----4-----|-4-4-----4------||
Ab|--4-4----4------|-4--4-----4-----|-4-4-----4------||
Eb|--2-2-0--2------|-2--2--0--2-----|-2-2--0--2------||

Eb|----------------||
Bb|----------------||
Gb|--5~------------||
Db|--5~------------||
Ab|--3~------------||
Eb|----------------||

Eb|----------------|----------------||
Bb|----------------|----------------||
Gb|----------------|----------------||
Db|----------------|----3-5--4~-----||
Ab|----------------|----3-5--4~-----||
Eb|--2h3p2h3p2h3p2h3p2--1-3--2~-----|| mess around with this riff again

Eb|----------------|----------------|----------------||
Bb|----------------|----------------|----------------||
Gb|-4--------------|-5--4-----------|----3-----------||
Db|-4--------------|-5--4-----------|----3-----------||
Ab|-2-2-2-2-2-2-2-0|-3--2-2-2-2-2-2-|2-2-1-----------||
Eb|----------------|----------------|----------------||

Eb|----------------|----------------|----------------||
Bb|----------------|----------------|----------------||
Gb|----------------|----------------|----------------||
Db|--4-4----4------|-4--4-----4-----|-4-4-----4------||
Ab|--4-4----4------|-4--4-----4-----|-4-4-----4------||
Eb|--2-2-0--2------|-2--2--0--2-----|-2-2--0--2------||

Eb|----------------|----------------|----------------||
Bb|----------------|----------------|----------------||
Gb|----------------|----------------|----------------||
Db|--4-4----4------|-4--4-----4-----|-4-4-----4------||
Ab|--4-4----4------|-4--4-----4-----|-4-4-----4------||
Eb|--2-2-0--2------|-2--2--0--2-----|-2-2--0--2------||

Eb|----------------||
Bb|----------------||
Gb|--5~------------||
Db|--5~------------||
Ab|--3~------------||
Eb|----------------||

Eb|--------------15|-15-17-15-------|----------------|----------------||
Bb|--13--15--17----|----------17--13|-13h15-17-17-15-|-13-13h15-------||
Gb|----------------|----------------|----------------|----------------||
Db|----------------|----------------|----------------|----------------||
Ab|----------------|----------------|----------------|----------------||
Eb|----------------|----------------|----------------|----------------||

Eb|--------------15|-15--17-15------|----------------||
Bb|--13--15--17----|-----------17--13-15s17-17-17-15-||
Gb|----------------|----------------|----------------||
Db|----------------|----------------|----------------||
Ab|----------------|----------------|----------------||
Eb|----------------|----------------|----------------||

Eb|----------------||
Bb|-15--13---------||
Gb|-----15b17------||
Db|----------------||
Ab|----------------||
Eb|----------------||

Eb|----------------|----------------|----------------|----------------||
Bb|----------------|----------------|----------------|----------------||
Gb|---7---7--8--9--|10----12---13---|15---16---17-16-15-14------------||
Db|----------------|----------------|----------------|---17-16-15-14--||
Ab|-5---5--6--7--9-|---10---11----13|--14------------|----------------||
Eb|----------------|----------------|----------------|----------------||

Eb|----------------|--------------------||
Bb|----------------|--------------------||
Gb|--17-16-15-14---|--------------------||
Db|--------------15|14-13-12------------||
Ab|----------------|-------15-14-13-12--||
Eb|----------------|--------------------||

Eb|----------------|----------------||
Bb|----------------|----------------||
Gb|----------------|----------------||
Db|----------------|----------------||
Ab|----------------|----------------||
Eb|--17-16-15-14-13|-12-11-10-------||

Eb|----------------||
Bb|----------------||
Gb|----------------||
Db|--2~-2~-2~-2----||
Ab|--2~-2~-2~-2----||
Eb|--0~-0~-0~-0----||
let ring