Giant Robot Theme
from Giant Robot NTT

tabbed by Chris Moss

this is the exactly the same riff as on Bucketheadland but not as long

intro

e--------------------------------------
b--------------------------------------
g--------------------------------------
d-2~--2~--2~--2~--5~-5~--2~-2~--5~-5~--etc;
a-2~--2~--2~--2~--3~-3~--2~-2~--3~-3~--
E-0~--0~--0~--0----------0~-0~---------

e------------------------------------|
b---------------------------3--------|
g-----------------4~-2-4-5~---5-4----|
d-------2~--5-4-2--------------------|
a-2-3-2------------------------------|
E------------------------------------|

e------------------------------------|
b------------------------------------|
g-----------------4--2-4-2-----------|
d--------2~-5-4-2----------5-4--2~---|
a--2-3-2-----------------------------|
E------------------------------------|

e-------------------------------------|
b---------------------------3---------|
g-----------------4~-2-4-5~---5-4~----| then
d-------2~--5-4-2---------------------|
a-2-3-2-------------------------------|
E-------------------------------------|

drum solo
(please excuse me if this is totally wrong it's lightning fast)
"giant robot destroy drakalon"
e--------------------------------------
b-151617-------------------------------
g--------------------------------------
d--------------------------------------
a--------------------------------------
E--------------------------------------