Ghost Host by Buckethead
from Decoding The Tomb Of Bansheebot

transcribed by Raymond Pearson

Tuning: Standard

Notes: I've only done a little, just up to the first solo. I'll tab out the rest when I got time.
Also, I think this is arguably the best track on the album.

e|---7---7---7---7---7---7---7---7---7---7---7---7---7---7---7---7-------------------------------------|
B|-7---7---9---9---7---7---9---9---7---7---9---9---7---7---9---9---------------------------------------|
G|-9-------9-------9-------9-------9-------9-------9-------9-------------------------------------------|
D|-9-------9-------9-------9-------9-------9-------9-------9-------------------------------------------|
A|-7-------7-------7-------7-------7-------7-------7-------7-------------------------------------------|
E|-----------------------------------------------------------------------------------------------------|

e|---4---4---4---4---4---4---4---4---4---4---4---4---4---4---4---4-------------------------------------|
B|-5---5---4---4---5---5---4---4---5---5---4---4---5---5---4---4---------------------------------------|
G|-6-------6-------6-------6-------6-------6-------6-------6-------------------------------------------|
D|-6-------6-------6-------6-------6-------6-------6-------6-------------------------------------------|
A|-4-------4-------4-------4-------4-------4-------4-------4-------------------------------------------|
E|-----------------------------------------------------------------------------------------------------|

e|---7---7---7---7---7---7---7---7---------------------------------------------------------------------|
B|-7---7---9---9---7---7---9---9-----------------------------------------------------------------------|
G|-9-------9-------9-------9---------------------------------------------------------------------------|
D|-9-------9-------9-------9---------------------------------------------------------------------------|
A|-7-------7-------7-------7---------------------------------------------------------------------------|
E|-----------------------------------------------------------------------------------------------------|

e|---4---4---4---4---4---4---4---4---------------------------------------------------------------------|
B|-5---5---4---4---5---5---4---4-----------------------------------------------------------------------|
G|-6-------6-------6-------6---------------------------------------------------------------------------|
D|-6-------6-------6-------6---------------------------------------------------------------------------|
A|-4-------4-------4-------4---------------------------------------------------------------------------|
E|-----------------------------------------------------------------------------------------------------|

e|---7---7---7---7---7---7---7---7---------------------------------------------------------------------|
B|-7---7---9---9---7---7---9---9-----------------------------------------------------------------------|
G|-9-------9-------9-------9---------------------------------------------------------------------------|
D|-9-------9-------9-------9---------------------------------------------------------------------------|
A|-7-------7-------7-------7---------------------------------------------------------------------------|
E|-----------------------------------------------------------------------------------------------------|

e|---4---4---4---4---4---4---4---4---------------------------------------------------------------------|
B|-5---5---4---4---5---5---4---4-----------------------------------------------------------------------|
G|-6-------6-------6-------6---------------------------------------------------------------------------|
D|-6-------6-------6-------6---------------------------------------------------------------------------|
A|-4-------4-------4-------4---------------------------------------------------------------------------|
E|-----------------------------------------------------------------------------------------------------|

e|-----------------------------------------------xx-x--------------------------------------------------|
B|----------------9----9------------------9~-----xx-x-----------------9--9-----------------------------|
G|----------------9----9------------------9~-----xx-x-----------------9--9-----------------------------|
D|-9/11-11--11----7----7-------9/11-11----7~-----xx-x--9/11-11--11----7--7-----------------------------|
A|-9/11-11--11-----------------9/11-11-----------xx-x--9/11-11--11-------------------------------------|
E|-7/9--9---9------------------7/9--9------------------7/9--9---9--------------------------------------|

e|-7-7-----4~------------------------------------------------------------------------------------------|
B|-7-7-----4~------------------------------------------------------------------------------------------|
G|-8-8-----4~------------------------------------------------------------------------------------------|
D|-9-9-----6~------------------------------------------------------------------------------------------|
A|-9-9-----6~------------------------------------------------------------------------------------------|
E|-7-7-----4~------------------------------------------------------------------------------------------|

e|-----------------------------------------------xx-x--------------------------------------------------|
B|----------------9----9------------------9~-----xx-x-----------------9--9-----------------------------|
G|----------------9----9------------------9~-----xx-x-----------------9--9-----------------------------|
D|-9/11-11--11----7----7-------9/11-11----7~-----xx-x--9/11-11--11----7--7-----------------------------|
A|-9/11-11--11-----------------9/11-11-----------xx-x--9/11-11--11-------------------------------------|
E|-7/9--9---9------------------7/9--9------------------7/9--9---9--------------------------------------|

e|-7-7-----4~------------------------------------------------------------------------------------------|
B|-7-7-----4~------------------------------------------------------------------------------------------|
G|-8-8-----4~------------------------------------------------------------------------------------------|
D|-9-9-----6~------------------------------------------------------------------------------------------|
A|-9-9-----6~------------------------------------------------------------------------------------------|
E|-7-7-----4~------------------------------------------------------------------------------------------|

e|-----------------------------------------------------------------------------------------------------|
B|-----------------------------------------------------------------------------------------------------|
G|-----------------------------------------------------------------------------------------------------|
D|-11--------6--------------11--------6--------------11--------6--------------11--------6--------------|
A|-------7h9---7-6-----6----------7h9---7-6-----6----------7h9---7-6-----6----------7h9---7-6-----7----|
E|---9-9-----------7-7---9----9-9-----------7-7---9----9-9-----------7-7---9----9-9-----------7-7---9--|

e|-----------------------------------------------------------------------------------------------------|
B|-----------------------------------------------------------------------------------------------------|
G|-----------------------------------------------------------------------------------------------------|
D|-6---------1--------------6---------1--------------6---------1--------------6---------1--------------|
A|-------2h4---2-1-----2----------2h4---2-1-----1----------2h4---2-1-----1----------2h4---2-1-----2----|
E|---4-4-----------2-2---4----4-4-----------2-2---4----4-4-----------2-2---4----4-4-----------2-2---4--|

e|-----------------------------------------------------------------------------------------------------|
B|-----------------------------------------------------------------------------------------------------|
G|-----------------------------------------------------------------------------------------------------|
D|-11--------6--------------11--------6--------------11--------6--------------11--------6--------------|
A|-------7h9---7-6-----6----------7h9---7-6-----6----------7h9---7-6-----6----------7h9---7-6-----7----|
E|---9-9-----------7-7---9----9-9-----------7-7---9----9-9-----------7-7---9----9-9-----------7-7---9--|

| / slide up
| h hammer-on
| p pull-off
| ~ vibrato
| x Mute note