Ghost by Buckethead
from Colma
Cyberoctave Music 1998

Transcription by Martin Wong (martin7218@earthlink.net)

Rhythm:
E----------------------------------------------------------------------------
B-------0--------0--------0--------------------------------------------------
G-----5--------7--------5----------------------------------------------------
D---7--------5--------3------------------------------------------------------
A-0--------0--------0--------------------------------------------------------
E----------------------------------------------------------------------------

Lead: from rhythm guitar
E----------------------------------------------------- -[-------]------------
B---10~--12h13-12~--15-13-12--12-13~--12-12h13-------- -[-5-6---]------------
G-9--------------------------------------------12----- -[-----5-]------------
D----------------------------------------------------- -[-------]------------
A----------------------------------------------------- -[-------]------------
E----------------------------------------------------- -[-------]------------

E-------------------------15~--15~--13p12-12~--12h13-------------------------
B---10~--15p13-12~--12h13----------------------------13~---------------------
G-9--------------------------------------------------------------------------
D----------------------------------------------------------------------------
A----------------------------------------------------------------------------
E----------------------------------------------------------------------------

E---7~-----------------------------------------------------------------------
B-5-----5p3-5-----5-6--------------------------------------------------------
G-------------4~------5~--4--4h5---------------------------------------------
D--------------------------------5~------------------------------------------
A----------------------------------------------------------------------------
E----------------------------------------------------------------------------

E-----------------8s10-8-7h8p7-----------------------------------------------
B-------5h6p5~--5--------------8~--5h6p5---6s8-------------------------------
G---5h7----------------------------------7-------5-4-5-5s7s4~----------------
D-7--------------------------------------------------------------------------
A----------------------------------------------------------------------------
E----------------------------------------------------------------------------

. .
E--------------------------------------15-15~-13-12--12h13-------------------
B--10-10--10~--12~--12h13-15~-13-13~-----------------------13----------------
G----------------------------------------------------------------------------
D----------------------------------------------------------------------------
A----------------------------------------------------------------------------
E----------------------------------------------------------------------------

E-8-8~--10s12-10~--8s7~--7h8-------------------------------------------------
B----------------------------8~---5-5h6p5-5---5~--6--------------------------
G-------------------------------------------7-------5------------------------
D----------------------------------------------------------------------------
A----------------------------------------------------------------------------
E----------------------------------------------------------------------------

E---7~-------------------------8-10-10s12--8-----7-8-10--10-10-8S7-----------
B-5-----5h6p5-------------------------------10-------------------------------
G-------------7-5--7-7s9-9---------------------------------------------------
D--------------------------7~------------------------------------------------
A----------------------------------------------------------------------------
E----------------------------------------------------------------------------

E-15-15-15p13-12--12h13------------------------------------------------------
B-----------------------13~--------------------------------------------------
G----------------------------------------------------------------------------
D----------------------------------------------------------------------------
A----------------------------------------------------------------------------
E----------------------------------------------------------------------------

E----------------------------------------------------------------------------
B----------12h13--12---------------------------------------------------------
G----12-14-----------14-12~--14----------------------------------------------
D-14----------------------------12h14~--12s10-10h12-12s14~-------------------
A----------------------------------------------------------------------------
E----------------------------------------------------------------------------

from rhythm guitar
E------------------------15~----13p12-12~--12h13------- -[----------]--------
B-12h13-12------12h13-12-------------------------13~--- -[--5-6-----]--------
G----------12~----------------------------------------- -[------5~--]--------
D------------------------------------------------------ -[----------]--------
A------------------------------------------------------ -[----------]--------
E------------------------------------------------------ -[----------]--------

E----------------------------------------------------------------------------
B-12h13-12------------------13h15-12~--12~-13s15~----------------------------
G----------14-12~-----12h14--------------------------------------------------
D------------------14--------------------------------------------------------
A----------------------------------------------------------------------------
E----------------------------------------------------------------------------

E----------------------------------------------------------------------------
B----12~--12h13---------12~--13s15-13-h15-12-h13-----------------------------
G-9-------------12~---9------------------------------------------------------
D----------------------------------------------------------------------------
A----------------------------------------------------------------------------
E----------------------------------------------------------------------------

E--------12-13-15-13p12--12h13-13p12-----------------------------------------
B---12~----------------------------------------------------------------------
G-9------------------------------------------12h14~--------------------------
D--------------------------------------12-14---------12h14p12s10-------------
A----------------------------------------------------------------------------
E----------------------------------------------------------------------------

E-15-15-15-15--13p12--12h13-12-----------------------------------------------
B------------------------------13~--12h13-12----------------12h13------------
G--------------------------------------------14----------12-------12~--------
D-----------------------------------------------12-12h14---------------------
A----------------------------------------------------------------------------
E----------------------------------------------------------------------------

E-15----------------15--15-12------------------------------------------------
A-----13---------13-----------13~--12h13-12----------------------------------
G---------12h14-----------------------------14----------12-12h14-------------
D----------------------------------------------12-12h14----------12s14~------
A----------------------------------------------------------------------------
E----------------------------------------------------------------------------

E-15--15-15-15--15-15-15--12---------------------------------------------15~-
B-----------------------------12h13-12-------------------12h13-----12h13-----
G--------------------------------------14-------------12-------14~-----------
D-----------------------------------------12h14-12h14------------------------
A----------------------------------------------------------------------------
E----------------------------------------------------------------------------

E----------------------------------------------------------------------------
B-12h13-12-------------------------------------------------------------------
G----------14----------12-12h14----------------------------------------------
D-------------12-12h14----------12h14~--12s10s9-10---------------------------
A----------------------------------------------------------------------------
E----------------------------------------------------------------------------

E----------------------------------------------------------------------------
B-------12h13p12-------12-13-12----------------------------------------------
G-14-14----------12-------------14~--12h14--12-------------------------------
D-------------------14-------------------------14s12-10h12-12s14~------------
A----------------------------------------------------------------------------
E----------------------------------------------------------------------------

E---12----------------12----12----------------12-13-13p12----12--------------
B--x---15-13-12-13-15----15----15-13-12-13-15-------------15----13p12-12h13~-
G-x--------------------------------------------------------------------------
D----------------------------------------------------------------------------
A----------------------------------------------------------------------------
E----------------------------------------------------------------------------

from rhythm guitar
E-8-8s10-7~---10-10s12-10~---10s8-7--8-8s4~---------- --[---------]----------
B---------------------------------------------------- --[--5-6----]----------
G-5-5s7--4~---7---7s9---7~----7s5-4--5-5s2~---------- --[------5--]----------
D---------------------------------------------------- --[---------]----------
A---------------------------------------------------- --[---------]----------
E---------------------------------------------------- --[---------]----------

E-8-8s10s7-7~---10-10s13s12---15-15s17---13--13s10~--------------------------
B----------------------------------------------------------------------------
G-5-5s7s4--4~---7---7s10s9----12-12s14---10--10s7~---------------------------
D----------------------------------------------------------------------------
A----------------------------------------------------------------------------
E----------------------------------------------------------------------------

E----------------------------------------------------------------------------
B-12h13~--12---------------------12--12h13-p12-------------------------------
G------------14------------12h14---------------14--------12-12h14-------12~--
D---------------12s14(s12)-------------------------12h14----------12h14------
A----------------------------------------------------------------------------
E----------------------------------------------------------------------------

E-15-15-15-15-13p12--12h13-12s10--10-10-10s8--8-8-8s7--7-7-7-----------------
B----------------------------------------------------------------------------
G------------------------------------------------------------9-9-9--7s5-7s9~-
D----------------------------------------------------------------------------
A----------------------------------------------------------------------------
E----------------------------------------------------------------------------

E----------------------------------------------------------------------------
B----------------------------------------------------------------------------
G-12----12h14~---------------------------------------------------------------
D----14----------------------------------------------------------------------
A----------------------------------------------------------------------------
E----------------------------------------------------------------------------

E----------------------------------------------------------------------------
B----------------------------------------------------------------------------
G-9h10p9---------------------------------------------------------------------
D--------10-10h12-12s14--14----------10s9-----------------------10p9---------
A---------------------------12-12h14------10--10-10-10----10h12------12-12~--
E------------------------------------------------------12--------------------

E----------------------------------------------------------------------------
B--------------------12-12--13-13-13s15-12~----------------------------------
G-9-9--12-12--14-14----------------------------------------------------------
D----------------------------------------------------------------------------
A----------------------------------------------------------------------------
E----------------------------------------------------------------------------

E-12~------------------------------------------------------------------------
B-----15-13~-15-12s8--8-8s5--------------------------------------------------
G----------------------------7--------12-12~---------------------------------
D--------------------------------9h10----------------------------------------
A----------------------------------------------------------------------------
E----------------------------------------------------------------------------

E------------------------15~--13p12-12~--------------------------------------
B-------------13-12~--13-----------------------------------------------------
G-9s7-7s9-9~-----------------------------------------------------------------
D----------------------------------------------------------------------------
A----------------------------------------------------------------------------
E----------------------------------------------------------------------------

E----------------------------------------------------------------------------
B---10~--12h13-12~--12h13-12h13p12-------------------------------------------
G-9--------------------------------14-12-12s14~------------------------------
D----------------------------------------------------------------------------
A----------------------------------------------------------------------------
E----------------------------------------------------------------------------