Flight 19 by Buckethead
from Bermuda Triangle

tabbed by Doug Cartwright (assassin252@kidrock.com)

Sorry there isn't more... :S

Verse 1 (repeat)
e--------------------
B--------------------
G--------------------
D--------------------
A--4-4-4--7-7-7------
E--2-2-2--5-5-5------

Chorus (repeat)
e--------------
B--------------
G--------------
D--------------
A--4-4-4--7~~--
E--2-2-2--5~~--