Flesh for the Beast
Deli Creeps

tabbed by Doug (bigsurmoon666@hotmail.com)

tuning: eBGDAD

No idea what's going on in the intro...

Verse:
e-------------------------------------------------------------
B-------------------------------------------------------------
G-------------------------------------------------------------
D-------------------------------------------------------------
A-0-1-0-1-2---0-1-0-1-2---0-1-2---0-1-0-1-2---0-1-0-1-2--6-6--
D-0-1-0-1-2---0-1-0-1-2---0-1-2---0-1-0-1-2---0-1-0-1-2--6-6--

Pre-chorus (tremolo pick all notes):
e--------------------
B--------------------
G--------------------
D--------------------
A-----4-6-4-6-9-6-4--
D--0-----------------

This could be wrong...it's fast, heavily muted, and Maximum Bob is screaming his face off.
So, erm...if I'm wrong, sorry!

Pre-chorus 2:
e-------------------------
B-------------------------
G-------------------------
D-------------------------
A--2-2---2-2---2-2---2-2--
D--2-2---2-2---2-2---2-2--

Chorus (Fleeeeeeeeeeeeeeeeeeeeesh for the beast!):
e-------------------------------------------------------------
B-------------------------------------------------------------
G-------------------------------------------------------------
D-------------------------------------------------------------
A--0-2-0-2-0-2-0-2-0-2-0-2-0-2-0-2--4~--6\5~------------------
D--0-2-0-2-0-2-0-2-0-2-0-2-0-2-0-2--4~--6\5~------------------