The Escape Wheel
from The Cuckoo Clocks of Hell

tabbed by Machete

Intro beginning riff:
---------------------------------------------------------
---------------------------------------------------------
-2-2-----------------2-2---------------------------------
-2-2--2-3-5-2-3-3----2-2--2-3-5-2-3-3--------------------
-0-0--2-3-5-2-3-3----0-0--2-3-5-2-3-3--------------------
------0-1-3-0-1-1-3-------0-1-3-0-1-1-3------------------
PM--- PM----

---------------------------------------------------------
---------------------------------------------------------
-----------------------------2~--------------------------
-2-3-2-2-5-3----2-3-2-2-5-3--2~--------------------------
-2-3-2-2-5-3----2-3-2-2-5-3--0~--------------------------
-0-1-0-0-3-1----0-1-0-0-3-1------------------------------
PM-------------------------