Electric Tears
from Electric Tears

transcribed by Martin Wong

I.
------------------------------------2<14>-------------------------
-----------------------------3<15>--------------------------------
----------------------0<12>---------------------------------------
---------------4<16>----------------------------------------------
--------2<14>-----------------------------------------------------
-0<12>------------------------------------------------------------

------------------------------------------------------------------
----------------------0<12>---------------------------------------
---------------0<12>----------------------------------------------
--------0<12>-----------------------------------------------------
-3<15>------------------------------------------------------------
------------------------------------------------------------------

II.
-7-----------7-----------2----------------------------------------
---0-----------0-----------3--------------------------------------
-----0-----------0-----------0------------------------------------
-------4-----------4-----------0----------------------------------
-7-----------5-----------3----------------------------------------
------------------------------------------------------------------

-7-----------7-----------2----------------------------------------
---------------0-----------3--------------------------------------
---0-------------0-----------0------------------------------------
-----4-------------4-----------0----------------------------------
-7-----7-----5-----------3----------------------------------------
------------------------------------------------------------------

-7-----------7-----------7-----------2----------------------------
-----------------------------0---------3---------------3----------
---0-----------0-----------0-------------0-----------0------------
-----4-----------4-------------4-----------4-------4--------------
-7-----------7-----------5-----------3-----------3----------------
------------------------------------------------------------------

-7-------------7-----------2--------------------------------------
-----0-----------0-----------3------------------------------------
-------0-----------0-----------0----------------------------------
---4-----4-----------4--------------------------------------------
-7-------------5-----------3--------------------------------------
------------------------------------------------------------------

-7-----------7-----------2----------------------------------------
---------------0-----------3--------------------------------------
---0-------------0-----------0------------------------------------
-----4-------------4-----------0----------------------------------
-7-----------5-----------3----------------------------------------
------------------------------------------------------------------

III.
  0      1      3      2       4       3
------------------------------------------------------------------
------------------------------------------------------------------
------------------------------------------------------------------
---------------4<16>----------------4<16>-------------------------
--------2<14>----------------5<17>--------------------------------
-0<12>----------------3<15>---------------------------------------

------------------------------------------------------------------
------------------------------------------------------------------
------------------------------------------------------------------
------------------------------------------------------------------
----------2<14>---------------------------------------------------
-0<12>--------------0<12>-----------------------------------------

IV.
------------------------------------------------------------------
----------------------3<15>---------------------------------------
---------------0<12>----------------------------------------------
--------4<16>-----------------------------------------------------
-2<14>-----------------------2<14>--------------------------------
---------------------------------------0<12>----------------------

------------------------------------------------------------------
----------------------3<15>---------------------------------------
---------------0<12>----------------------------------------------
--------4<16>-----------------------------------------------------
-2<14>------------------------------------------------------------
------------------------------------------------------------------

------------------------------------------------------------------
-3<15>------------------------------------------------------------
--------0<12>-----------------------------------------------------
---------------4<16>----------------------------------------------
----------------------2<14>---------------------------------------
------------------------------------------------------------------

------------------------------------------------------------------
-3<15>------------------------------------------------------------
--------0<12>-----------------------------------------------------
---------------4<16>----------------------------------------------
----------------------3<15>---------------------------------------
------------------------------------------------------------------

------------------------------------------------------------------
-3<15>------------------------------------------------------------
--------0<12>-----------------------------------------------------
---------------4<16>----------------------------------------------
----------------------2<14>---------------------------------------
------------------------------------------------------------------

---------0--------------------------------------------------------
-------3----------------------------------------------------------
-----0------------------------------------------------------------
---2--------------------------------------------------------------
-3----------------------------------------------------------------
------------------------------------------------------------------

V.
Solo:
  Em                    C
|-----------------------------------------------------------------
|-0---------------------0-----------------------------------------
|-0---------------------0-----------------------------------------
|-2---------------------2-----------------------------------------
|-2---------------------3-----------------------------------------
|-0---------------------------------------------------------------
|
|
|--------------7~---10-10-8-7~------------------------------------
|---5~-s7-8h10----------------------------------------------------
|--x--------------------------------------------------------------
|-x---------------------------------------------------------------
|-----------------------------------------------------------------
|-----------------------------------------------------------------

  Em                   C
|-----------------------------------------------------------------
|-0--------------------0------------------------------------------
|-0--------------------0------------------------------------------
|-2--------------------2------------------------------------------
|-2--------------------3------------------------------------------
|-0---------------------------------------------------------------
|
|
|------------5~---5s7~--------------------------------------------
|-5~-5-7-7h8-----------8-7-7~---7~--s/----------------------------
|-----------------------------------------------------------------
|-----------------------------------------------------------------
|-----------------------------------------------------------------
|-----------------------------------------------------------------

  Em               C
|-----------------------------------------------------------------
|-0----------------0----------------------------------------------
|-0----------------0----------------------------------------------
|-2----------------2----------------------------------------------
|-2----------------3----------------------------------------------
|-0---------------------------------------------------------------
|
|
|------------5~---10--8-7~----------------------------------------
|-5~-5-7-7h8------------------------------------------------------
|-----------------------------------------------------------------
|-----------------------------------------------------------------
|-----------------------------------------------------------------
|-----------------------------------------------------------------

  Em                   C
|-----------------------------------------------------------------
|-0--------------------0------------------------------------------
|-0--------------------0------------------------------------------
|-2--------------------2------------------------------------------
|-2--------------------3------------------------------------------
|-0---------------------------------------------------------------
|
|
|------------5~---------------------------------------------------
|-5~-5-7-7h8-------8p7-7-h8-7-------------------------------------
|-----------------------------------------------------------------
|-----------------------------------------------------------------
|-----------------------------------------------------------------
|-----------------------------------------------------------------

VI.
Rhythm:
-7-----------7-----------2----------------------------------------
---0-----------0-----------3--------------------------------------
-----0-----------0-----------0------------------------------------
-------4-----------4-----------0----------------------------------
-7-----------5-----------3----------------------------------------
------------------------------------------------------------------

-7-----------7----------------------------------------------------
---0-----------0--------------------------------------------------
-----0-----------0------------------------------------------------
-------4-----------4----------------------------------------------
-7-----------5----------------------------------------------------
------------------------------------------------------------------

Lead: ??
------------------------------------------------------------------
-5~---7s8s10---12-----15--14--12-12---s14----10s8-----------------
------------------------------------------------------------------
-2~---4s5s7----9------12--10--9---9---s10-----7s5-----------------
------------------------------------------------------------------
------------------------------------------------------------------

------------------------------------------------------------------
-5~---5s7--8---12-----15s14--12-12--------------------------------
------------------------------------------------------------------
-2~---2s4--5---9------12s10---9--9--------------------------------
------------------------------------------------------------------
------------------------------------------------------------------