Doomride by Buckethead
from Giant Robot

tabbed by Limpy Hodzic

First riff

play every note as fast you can...
I donīt know how many times Buckethead hits one note, itīs impossible to hear.
the notes with ( ) you hit only one time

-(19)-20-(18)-19-(17)-18-(16)-17-----------------------
-----------------------------------------------------------
-----------------------------------------------------------
-----------------------------------------------------------
-----------------------------------------------------------
-----------------------------------------------------------

play it a couple of times

then the next riff

here he uses a space/robot sound, he does it with his guitar synthesizer.
how to make the sound: you have the normal distortion sound, and then you put a
half step tuned up guitar sound with the first sound, so you play like 2 guitars
you can do this on: Digitech RP 2000 and more

hereīs the riff

-----------------------------------------------------------------|
-----------------------------------------------------------------|
-----------------------------6-------2-------4-------7--5------.|
----5------1-----3----------------------------------------------.|
----------------------2---------4-------6--------3--------------|
-1-----3------5-------------------------------------------------| again

next riff

--/------------------------15-17-18-17-18-17-15-------
--/--------------------------------------------------------
--/slide on the neck---------------------------------------
-----------------------------------------------------------
-----------------------------------------------------------
----------------------------------------------------------- again and again