Destroyer by Praxis
from Warszawa

tabbed by Chris Moss

this song I've divided up into sections because there is no real verse chorus.
the best timing you'll get is if you listen to the song...enjoy.

Eb Ab Db Gb Bb eb

Riff 1 (1.36) slightly palm muted
|---------------------------|
|---------------------------|
|----------------7~---------|
|---------------------------|
|---5-----7------5~---------|
|---3-----5-----------------|

Riff 2 (2.36)
|---9--9---7---9--9--9---7-----|
|---x--x---x---x--x--x---x-----|
|---7--7---6---7--7--7---6-----|
|------------------------------|
|------------------------------|
|------------------------------|

Riff 3 (2.52) lots of palm mute (I come in Peace)
|------------------------|
|------------------------|
|------------------------|
|-4-4-4--3~--------------|
|-4-4-4--3~--------------|
|-2-2-2--1~--------------|

Bass Riff #1 (throughout the song)
Gb|--------------------------------|
Db|--------------------------------|
Ab|--------------------------------|
Eb|-----5-5---3-3---0-0---3-0-3----|

Bass Riff #2
Gb|---------------------------|
Db|---------------------------|
Ab|---------------------------|
Eb|---5-5----3-3--------------|