Covert by Buckethead
from Funnel Weaver

tabbed by Fernando

E-------------------------------------
B-------------------------------------
G-------------------6-----------------
D--------8-------8----8---------------
A-----8-----8--9----------------------
E--6----------------------------------
Repeat 8 times

E---------------------------------------------------------
B---------------------------------------------------------
G---------------------------------------------------------
D--------1h3p1------------4h3-----------------------------
A-1-111h3------3--3-333h5-----5\3-------------------------
E---------------------------------------------------------
Repeat twice

Thats all folks!
E-mail me if something is wrong, or just e-mail me saying you tried out the tabs,
I need some input. Thanks - Fernando (Thedoorsfreak@aol.com)