Conveyor Belt Blues by Buckethead
from Somewhere Over the Slaughterhouse


tabbed by Chris Moss

standard tuning (all the parts are played without a pick)

part one
e--------------1------1-----------------|
b----1-1-1h3----1h3----4---2---------|
g---------------------------2-----------|  x4
d--5------------------------------------|
a---------------------------------------|
E---------------------------------------|

part two
e---------------1------1----------------|
b------1-1-1h3---1h3-----4---2--------|
g-----------------------------2----------|  x2
d--5---0~-----------------------0-------|
a----------------------------------------|
E----------------------------------------|

pre-chorus
e--------------1------1----------------|
b-----1-1-1h3---1h3-----4---2--2~---|
g-------------------------------2~-----|
d--5---0~------------------------------|
a-------------------------------0~-----|
E--------------------------------------|

chorus
e-----------------------------------------------------|
b--3~--------------0~------2~-----3----0~----0~---|
g--4~------2~------1~------2~-----4----2~----1~---|
d----------3~------2~------------------------2~-----|
a----------------------------0~-----------------------|
E--3~-----1~------0~--------------3~---1~---------|

part three
e--------------1------1-------------------|
b----1-1-1h3----1h3----4---2-0--2------|
g-------------------------------2---------|  x2
d--5--------------------------------------|
a-------------------------------0---------|
E-----------------------------------------|

chorus
e-----------------------------|
b--3~---------------0~--0---|
g--4~------2~------1~--X---|
d-----------3~------2~------|
a-----------------------------|
E--3~------1~------0~------|

part four
e------------X2P1--1------1-------------------|
b----1-1-1h3----------1h3----4---2-0--2------|
g-------------------------------------2---------|
d--5--------------------------------------------|  x3
a-------------------------------------0---------|
E-----------------------------------------------|

outro
e--------------1------1------------------|
b----1-1-1h3----1h3----4---2----------|
g---------------------------2------------|  x2 FAST
d--5-------------------------------------|
a----------------------------------------|
E----------------------------------------|