Computer Master by Buckethead (slow melodic part only, from 2:56 - 4:16)
from Buckethead Land

tabbed by Jeff Stacey (jstacey@uiuc.edu)


Tuning: it's played in a tuning a bit below standard. The E strings should
be about halfway between E and D#. (easiest way is to tune the
low E down until it matches with the lowest note you hear throughout
the song and then tune the rest to match)


h = hammer on
p = pull off
/ = slide up
\ = slide down
^ = harmonic

e:-----------------------4----------------------------------------------------
B:--------------4h5p6----5------------------4h5p4------------4h5--------------
G:---4--------4-------4--4---------------4-------4--------6-----6-------------
D:---6--4-4h6------------6-------4-4-4h6----------6--------------6------------
A:---7-------------------7------------------------------4---------------------
E:---0-------------------0------------------------------------------7---------


------------------------------------------------------------------------------
---5---------5--------------------------------10p9-----------9h10p9-----------
-----4-4-----4-------------------------------------9-9h11----------11---------
-------------7--6-------------------------------------------------------------
------------------7------------7-7h9p7----------------------------------------
-------------------------7-7-9------------0-----------------------------------


--------------------12-12p11--------------------------------------------------
-----10p9h10-12--------------12----12----12-12----12/14\12----10-10-10p9------
------------------------------------------------------------------------------
------------------------------------------------------------------------------
------------------------------------------------------------------------------
---0-------------------------------0------------------------------------------


------------------------------------------------------------------------------
---9-10---------10p9---------------------10p9-------------9h10-p9h10-9--------
---------9----------9------------------------9------------9-------------------
---------------------11----------9--------------------------------------------
---0-------------------------9h11---------------------------------------------
--------------0---------0----------0-----------0---0-0------------------0-0---


-------------------------7----------------------------------------------------
----------------------------10--9h10------------------------------------------
------------11--11---9----------------9---------------------------------------
-------9----------------------------------------------------------------------
---9h11-------------------------0---------------------------------------------
------------9---9----7-------------------------------4------------------------


------------------------------------------------------------------------------
--5p4---5p4----5p4---5p4----5p4---5p4----5p4---5p4----5p4---5p4----5p4---5p4--
-----6------------4------------6------------4------------6------------4-------
------6------------4------------6------------6------------6------------6------
--4-------------------------4-------------------------4-----------------------
------------4--5---------4------------4--7---------4------------4--7----------
This part is hard, the bottom 2 strings are correct, not sure about the others


----------------0---------12^-------------------------------------------------
--------------0---------------12^---------------------------------------------
------------2---------------------14^-13^-------------------------------------
----------2-------------------------------14^---------------------------------
--------0---------------------------------------------------------------------
--2---------------------------------------------------------------------------
don't think this is right, but it sounds good.
just play regularly if you can't do the harmonics.

--------------------------------12-11-----------------------------------------
-----10p9--------------10p9-----------12-9------------------------------------
----------9-----------------9--------------11p9-------------------------------
------------9-----------------------------------------------------------------
----------------9h11----------------------------------------------------------
--0-----------------0---------------------------------------------------------

------------------------------------------------------------------------------
----10-----10-10----10-10---10-10--12---12--9-9-------------------------------
----9------9--9-----9--9----9--9------------------11-9------------------------
----11-----11-11----11-11---11-11---------------------------------------------
----0------0--0-----0--0----0--0----------------------------------------------
-0----------------------------------------------------------------------------