Wound
from Cobra Strike - The 13th Scroll

tabbed by Javarnanda

I tried to tab this AMAZING track!I think it's played by TWO guitars...
anyway, uses so MUCH delay and fuzz sound? I think it's something like this:

e-----------------------------------------------(16t)9
b----------------------------------------(16t)9-------
g---------------------------------(16t)9--------------
d-------------------------(16t)13---------------------
a-----------------(16t)11-----------------------------
E-/9?----9--(16t)9------------------------------------

e?11h12p11--------------------------------------------
b----------12-----------------------------------------
g-------------9p8b?-----------------------------------
d-----------------9h11--------------------------------
a-----------------------------------------------------
E-----------------------------------------------------

e---------------------------------------------(16t)9--
b--------------------------------------(16t)9---------
g-------------------------------(16t)9----------------
d-----------------------(16t)13-----------------------
a---------------(16t)11-------------------------------
E-------(16t)9----------------------------------------

e?-11h12p11-------------------------------------------
b-----------12----------------------------------------
g--------------9???-----------------------------------
d-----------------------------------------------------
a-----------------------------------------------------
E-----------------------------------------------------

e---------------------------------------------(16t)9--
b--------------------------------------(16t)9---------
g-------------------------------(16t)9----------------
d-----------------------(16t)13-----------------------
a---------------(16t)11-------------------------------
E-------(16t)9----------------------------------------

e?-11h12??????----------------------------------------
b---------------12------------------------------------
g---------------------9???????------------------------
d-----------------------------------------------------
a-----------------------------------------------------
E-----------------------------------------------------

e---------------------------------------------(16t)9--
b--------------------------------------(16t)9---------
g-------------------------------(16t)9----------------
d-----------------------(16t)13-----------------------
a---------------(16t)11-------------------------------
E-------(16t)9----------------------------------------

e?----------------------------------------------------
b--9--------------------------------------------------
g------8b?????????------------------------------------
d-----------------------------------------------------
a-----------------------------------------------------
E-----------------------------------------------------

e?-------------5--------------------------------------
b------------5----------------------------------------
g----------6------------------------------------------
d--------9--------------------------------------------
a-----7-----------------------------------------------
E?9/5????????????????????????????????????????????-----

e?-11??--11-------------------------------------------
b-----------12---9???9h10-----------------------------
g---------------------------9-------------------------
d-----------------------------------------------------
a-----------------------------------------------------
E-----------------------------------------------------

e---------------------------------------------(16t)9--
b--------------------------------------(16t)9---------
g-------------------------------(16t)9----------------
d-----------------------(16t)13-----------------------
a---------------(16t)11-------------------------------
E-------(16t)9----------------------------------------

e?-11h12???-12??---12?p11-----------------------------
b-------------------------12--------------------------
g----------------------------9------------------------
d-----------------------------------------------------
a-----------------------------------------------------
E-----------------------------------------------------

e---------------------------------------------(16t)9--
b--------------------------------------(16t)9---------
g-------------------------------(16t)9----------------
d-----------------------(16t)13-----------------------
a---------------(16t)11-------------------------------
E-------(16t)9----------------------------------------

e?-11h12p11-------------------------------------------
b-----------12----------------------------------------
g--------------9?8h9p8--------------------------------
d-----------------------9/11???-----------------------
a-----------------------------------------------------
E-----------------------------------------------------

e?-------------5--------------------------------------
b------------5----------------------------------------
g----------6------------------------------------------
d--------9--------------------------------------------
a-----7-----------------------------------------------
E?9/5????????????????????????????????????????????-----

e?-11h12p11-------------------------------------------
b-----------12?12???----------------------------------
g-----------------------------------------------------
d-----------------------------------------------------
a-----------------------------------------------------
E-----------------------------------------------------

e--------19?19h21-21b????????????????-----------------
b-----------------------------------------------------
g-----------------------------------------------------
d-----------------------------------------------------
a-----------------------------------------------------
E--/9????????????????????-----------------------------

(www.javarnanda.com) java@fastwebnet.it