Buckethead
by Colonel Claypool's Bucket of Bernie Brains
from the album "The Big Eyeball in the Sky"

tabbed by Treebeard

/ = slide into from below
\\ = slide into from above
14b16 = bend 14 to 16

Intro - 0:35 Guitar fades in with the 18
e|----------------------------|
b|-18-/-20-/-22-\\-20-22-\\-18|
g|----------------------------|
d|----------------------------|
a|----------------------------|
e|----------------------------|

Chorus: 1:29, 2:30
e|------|
b|-12---|
g|-14b16|
d|------|
a|------|
e|------|

Bridge: 3:15
e|--------------------|
b|--------------------|
g|--------------------|
d|--------------------|
a|-7------------------|
e|----7--8--5--3--2--0| this x3 then

e|--------------------|
b|--------------------|
g|--------------------|
d|-9------------------|
a|-7--9--10-7--5--4--2|
e|----7--8--5--3--2--0|

Sorry, no solo.