Botnus from Enter the Chicken

tabbed by 'Farmer Bob'

Note: Bucket often plays it tuned down

e|-------------------------|
B|-------------------------|
G|-----------5-------------|
D|--7--5--7--5--7--5--7--7-|
A|--7--5--7--3--7--5--7--7-|
E|--5--3--5-----5--3--5--5-|

e|--------------------------------------|
B|--------------------------------------|
G|--------------------------------------| X8
D|--------------------------------------|
A|-----4-------4-------4----555-777-555-|
E|-2-2---2---2---2---2---2--------------|


e|--------------------------|
B|--------------------------|
G|---------2----------------|
D|-4--4--4-2--4-4-XX-4------| X4 <--- experiment with it, I bet ya get the tone :-)
A|-4--4--4-0--4-4-XX-4------|
E|-0--2--0----2-2-XX-2------|

Solo Rhythm:
e|-------------------|
B|-------------------|
G|-------------------|
D|-4-4-4-4-XX--4--2--|
A|-4-4-4-4-XX--4--2--|
E|-0-2-0-2-XX--0--0--|

Feel free to correct it and put your stuff here :-) Right now I can only share my "1st Thoughts" but I will post some tabs I have worked a long time on soon.