The Blind Sniper by Buckethead
from Funnel Weaver


transcribed by siknsyko

main riff (delay)

e |------------------------------------------------|------------------------------------------------|
B|------------------------------------------------|------------------------------------------------|
G|-13----------13-------13----------------------|-13----------13-------13----------------------|
D|----11-14-------11-14----11-14--------------|----11-14-------11-14----11-14--------------|
A|----------12----------------------12-11-12----|----------12---------------------12-11-12----|
E|---------------------------------------------12-|--------------------------------------------12-|

e |------------------------------------------------|
B|------------------------------------------------|
G|-13----------13-------13----------------------|
D|----11-14-------11-14----11-14--------------|
A|----------12----------------------12-11-12----|
E|---------------------------------------------12-|

pause for a 2 counts - repeat main riff

e |------------------------------------------------|------------------------------------------------|
B|------------------------------------------------|------------------------------------------------|
G|-13----------13-------13----------------------|-13----------13-------13----------------------|
D|----11-14-------11-14----11-14--------------|----11-14-------11-14----11-14--------------|
A|----------12----------------------12-11-12----|----------12----------------------12-11-12---|
E|---------------------------------------------12-|---------------------------------------------12-|

e |------------------------------------------------|-------|
B|------------------------------------------------|-------|
G|-13----------13-------13----------------------|-------|
D|----11-14-------11-14----11-14--------------|-------|
A|----------12----------------------12-11-12---|-------|
E|---------------------------------------------12-|-11-9-|

ending riff

e |-------------------------------------------------------------|------------------------------|-------------------------------|
B|-------------------------------------------------------------|------------------------------|-------------------------------|
G|-------------------------------------------------------------|------------------------------|-------------------------------|
D|-------------------------------------------------------------|------------------------------|-------------------------------|
A|-------------------------------------------------------------|------------------------------|-------------------------------|
E|9-9-9-9-9-9-9-9-9-9-9-9-9-9-9-9(12)-9-9-9-12-12-11-7|9-9-9-9-9-9-9-9-12-12-11-7|9-9-9-9-9-9-9-9-12-12-11-7|

e |---------------------------------|----------|
B|---------------------------------|----------|
G|---------------------------------|----------|
D|---------------------------------|----------|
A|---------------------------------|----------|
E|-9-9-9-9-9-9-9-9-12-12-11-7-|-9-9-9-9-|