Black Forest by Buckethead
from The Cuckoo Clocks of Hell

tabbed by Cody S.

Tuning: Eb Ab Db Gb Bb Eb

e---0-0-0-0-0-0-0-0-0-0-0-0-0-0-0-0--|
B---4-4-4-4-4-4-4-4-4-4-4-4-4-4-4-4--|
G------------------------------------|
D----2-1-2---2-1-2---2-1-2-1-2-1-2---|
A------------------------------------|
E--1-------1-------1-----------------|

e------------------------------------7-6-5-4-3-2-1-2-3-4-5-6-7-6-5-4-3-2-1-2-3-4-5-6-7---|
B--2p1-0h1-2p1-0h1-2p1--1-1-1-1----------------------------------------------------------|
G----------------------5s4s3s2-----------------------------------------------------------|
D----------------------------------------------------------------------------------------|
A----------------------------------------------------------------------------------------|
E----------------------------------------------------------------------------------------|

e---------------------12-11-10-9-------------------13-----------------14------------12-11-10-9|
B-7--6--5--6--7--6----11-10-9--8--------------------------------------------7--6----11-10-9--8|
G-6--5--4--5--6--5----10-9--8--7-----9-10-11-12-13------9-10-11-12-13-------6--5----10-9--8--7|
D-5--4--3--4--5--4----------------------------------------------------------5--4--------------|
A---------------------------------------------------------------------------------------------|
E---------------------------------------------------------------------------------------------|

e---0-0-0-0-0-0-0-0-0-0-0-0-0-0-0-0-0-0-0-0-0-0-0-0-0-0-0-0-0-0-0-0--------|
B---4-4-4-4-4-4-4-4-4-4-4-4-4-4-4-4-4-4-4-4-4-4-4-4-4-4-4-4-4-4-4-4--------|
G--------------------------------------------------------------------------|
D----2-1-2-1-2-1-2---2-1-2-1-2-1-2---2-1-2-1-2-1-2---2-1-2-1-2-1-2---------|
A--------------------------------------------------------------------------|
E--1---------------1---------------1---------------1-----------------------|

e---0-0-0-0------------0-0-0-0---------0-0-0-0-0-0-0-0-0-0-0-4----|
B---4-4-4-4------------4-4-4-4---------4-4-4-4-4-4-4-4-4-4-4-0----|
G----1---0------------------------------1---0-----------1---0-----|
D--2---2--------------1-2-1-2---------2---2---1-2-1-2-2---2-------|
A-----------------------------------------------------------------|
E-----------------------------------------------------------------|

e-----------------------------------------------------------------|
B-----------------------------------------------------------------|
G-------------------------2-1------------------------2-1----------|
D--------------------2-1-2----------------------2-1-2-------------|
A-----------------4-3-----------------------4-3-------------------|
E------4-3-----6-5---------------4-3-----6-5----------------------|

e|---------------------------------7654------------|
B|---------------------------7654------------------|
G|---------------------7654------------------------|
D|---------------7654------------------------------|
A|----------7654-----------------------------------|
E|-----7654----------------------------------------|

e----------------------------------------------------------------------|
B---3h4-4-5-p4--3h4-4-5-p4--3h4-4-5-p4----6-5-4-3-3-4-5-6--------------|
G------------------------------------------------------6-5-4-3-3-4-5-6-|
D----------------------------------------------------------------------|
A----------------------------------------------------------------------|
E----------------------------------------------------------------------|

I know this isnít right, but it sounds close enough and this is how I play it

e|-----9-8-9-8h9----9-8-9-8h9----7-8-7-7h8----7-8-7-7h8--------------|
B|-------------------------------------------------------------------|
G|-------------------------------------------------------------------|
D|-------------------------------------------------------------------|
A|-------------------------------------------------------------------|
E|----0-0-0--------0-0-0--------0-0-0--------------------------------|

e|----------------------------------|
B|----------------------------------|
G|----------------------------------|
D|----------------------------------|
A|-----------------6----------------|
E|---5---5---4-5-6------------------|

e|-------------------------------------------------------|
B|-------------------------------------------------------|
G|-------------------------------------------------------|
D|---------------------------12-11-10-9------------------|
A|----------------12-11-10-9------------12-11-10-9-------|
E|----12-11-10-9-----------------------------------------|

e|------------------------------------------------------|
B|------------------------------------------------------|
G|---------------12-11-10-9--------------12-11-10-9-----|
D|----12-11-10-9-------------12-11-10-9-----------------|
A|------------------------------------------------------|
E|------------------------------------------------------|

e|---------------------------------------12-11-10-9------13---------|
B|----12-11-10-9-------------12-11-10-9-----------------------------|
G|---------------12-11-10-9-----------------------------------------|
D|------------------------------------------------------------------|
A|------------------------------------------------------------------|
E|------------------------------------------------------------------|