Binge and Grab (with solo)
from Giant Robot


tabbed by The Voss (thanks to Kramer for the rough version of the solo)

Legend:
PM.. .. - Palm Mute
H - Hammer-On
P - Pull-Off
~~~ -Vibrato
S.H. -Semi Harmonic
/////// -Pick Slide
/ , \ -Slide up, or Down
o -Wah Pedal open
+ -Wah Pedal Closed
Full Full
/ /\
/ - Full bend With release ΰ / \

Main Riff 1
PM ……… ……………… ………….
E|--------------------------------------------------------------------------------------------------------------0------
B| ----------------------------------------------------------------------------------------------2------4---------4---
G|----------------------------------------------------------------2--------4-----1------2--------------------------6-
D|--9-----9-----9--/--11--9------ 9-------4------7-6-4------ 2-----2-----2-----2------2------2------2-------------
A|- 7--7-----7---------------------9----6------6---------------0-----------------------------------------------------
E|--0-------------------------------7----------------------------------------------------------------------------------

E|------------------------------------------0---------------------0-------------
B|-------5-7-5-----4-5-4-------------------4----------4----------------------
G|---6--6-6-6--4--4-4-4---2------4----------6--2-2----2-------------------- this riff is played about 5 times
D|---6--6-6-6--4--4-4-4---2---4-----4--------------------------------------- then play the next riff
A|---4-----------2-----------0--------------------------------------------------
E|------------------------------------------------------------------------4--2---

Riff 2 Play twice, then play this
E|------------------------------------------------------- -|---0------0------0----------0------0------0----------
B|------------------------------------------------------- -|-----4------4------------------4------4---------------
G|--4--/--6----4----6----2----4--/--6-------------- 2- |--------4------4-----4--2--------4------4--------------
D|--4--/--6----4----6----2----4--/--6-------1--2-- 2- |----------------------4--2--------------------------------
A|--2--/--4----2----4----0----2--/--4----2---------0--|----------------------2--0--------------------------------
E|-------------------------------------------------------- |-------------------------------------------------4--2---

Riff 1
PM ……… ……………… ………….
E|--------------------------------------------------------------------------------------------------------------0-----
B| ----------------------------------------------------------------------------------------------2------4---------4--
G|----------------------------------------------------------------2--------4-----1------2--------------------------6
D|--9-----9-----9--/--11--9------ 9-------4------7-6-4------ 2-----2-----2-----2------2------2------2------------
A|- 7--7-----7---------------------9----6------6---------------0----------------------------------------------------
E|--0-------------------------------7---------------------------------------------------------------------------------

E|------------------------------------------0---------------------0-------------
B|-------5-7-5-----4-5-4-------------------4----------4----------------------
G|---6--6-6-6--4--4-4-4---2------4----------6--2-2----2-------------------- this riff is played 3 more times
D|---6--6-6-6--4--4-4-4---2---4-----4--------------------------------------- then play the next riff
A|---4-----------2-----------0-------------------------------------------------
E|------------------------------------------------------------------------4--2--

Riff 2 Play twice, then play this
E|------------------------------------------------------- -|---0------0------0----------0------0------0--------0----0 -------
B|------------------------------------------------------- -|-----4------4------------------4------4---------------4----4------
G|--4--/--6----4----6----2----4--/--6-------------- 2- |--------4------4-----4--2--------4------4----4--2------4----4--4--
D|--4--/--6----4----6----2----4--/--6-------1--2-- 2- |----------------------4--2---------------------4--2---------------4--
A|--2--/--4----2----4----0----2--/--4----2---------0--|----------------------2--0---------------------2--0---------------2--
E|-------------------------------------------------------- |---------------------------------------------------------------------

Bridge To Solo
E|------------------------------------------- play this riff about 4 times
B|-------------------------------------------
G|-------------------------------------------
D|-----------6p2--------------6p2----------
A|--4p2h4-------6p4p2--6--------6--------
E|-------------------------------------------

Play under Bridge Full
E|------------------------------------------|------------------------------------------/\-----
B|------------------------------------------|-----------------------------------------/--\----
G|--2-4-6---9-8-6---2-4-2----4--6-----|--2-4-6---9-8-6---2-4-2----4-------/-----\------
D|--2-4-6---9-8-6---2-4-2----4--6-----|--2-4-6---9-8-6---2-4-2----4------/------------
A|--0-2-4---7-6-4---0-2-0----2--4-----|--0-2-4---7-6-4---0-2-0----2-----/-------------
E|------------------------------------------|-----------------------------------4/--------2--

SOLO
Full w/ wah + o + o + o S.H. + o /\ +
E|----------------------------------------------------------------------------------------------11/---11-9-7--
B|------------------12-----------------------------------------10-/-12-12-12-12-12-12---------------------
G|--12-/-14-----------------13-------11h13------------------9-/-11-11-11-11-13-11----------------------
D|-------------14-------14-------14-----------14~~---------------------------------------------------------
A|--------------------------------------------------------------------------------------------------------------
E|--------------------------------------------------------------------------------------------------------------

Full Full Full Full Full
o /\ + o + / o + / o + / o + / o Wah off
E|-------/---\--------------------11-/--11-/--12-/--14-12---11-/----12----------------------------------------
B|--12/------\12-10-9~~------14/---14/---15/-------------14/----------14~~~~~----------------------------
G|------------------------------------------------------------------------------------------------------8-9----
D|-----------------------------------------------------------------------------------------------9h11------11-
A|--------------------------------------------------------------------------------------------------------------
E|--------------------------------------------------------------------------------------------------------------

Pick Slide
E|------------------------------------------------------------------------------------------------------------
B|----10-9-7--12-10-9~~~10------------------------------------------------------------------------------
G|---------------------------------9~~----------8h9p8-----------------------------------------------------
D|-9---------------------------------------9h11-------------------------------------------------------------
A|--------------------------------------------------------9-/-7----------------------------------------------
E|--------------------------------------------------------------------///////------------------------------------


3:13 to 3:21 section - tabbed by Jeremy Deane aka "Junks"
v = up stroke
~~~~ = use lots of vibrato bending up in pitch as well.

          v                           v                              v                                 v
E-------------------------------------------------------------------------------------------------------------
B-------------------------------------------------------------------------------------------------------------
G-------------------------------------------------------------------------------------------------------------
D-------------------------------------------------------------------------------------------------------------
A----4------------------6--------------------7----------------------9----------------------------------------
E-------7--5--4--5--7------9--7--5--7--9------11--9--7--9--11------12--11--9--11--12------------------

        v                                       v                                              v                                     v
E-----------------------------------------------------------------------------------------------------------------------
B-----------------------------------------------------------------------------------------------------------------------
G-----------------------------------------------------------------------------------------------------------------------
D----------------------------------------------------------------------------------------11----------------------------
A------------------------------11-----------------------------11--12--14--11--12--14----14-12-11--12-14---------
E--11--12--14--11--12--14-------14---12--11--12--14--------------------------------------------------------------

        v                                        v
                                                                                                  this part below is faster...more legato...
E-------------------------------------------------------------------------------------------------------------------
B-------------------------------------------------------------------------------------14--16--17--14--16--17----
G-------------------------------13------------------------------13--14--16---------------------------------------
D--13--14--16--13--14--16--------16--14--13--14--16----------------------------------------------------------
A-------------------------------------------------------------------------------------------------------------------
E--------------------------------------------------------------------------------------------------------------------

E--14--16--17--17--16--14--------14---------------------------------------------------
B-------------------------------17--------17--16--14------------------------------------
G--------------------------------------------------------------------16~~~~~~~~~-----
D------------------------------------------------------------------------------------------
A------------------------------------------------------------------------------------------
E-------------------------------------------------------------------------------------------



E|--------------------------14-16-17-14-16-17-------------------------16-17-19-16-17-19-----
B|--14-16-17-14-16-17-------------------------16-17-19-16-17-19-----------------------------
G|--------------------------------------------------------------------------------------------------
D|--------------------------------------------------------------------------------------------------
A|--------------------------------------------------------------------------------------------------
E|---------------------------------------------------------------------------------------------------

E|-------------------------17-19-21-17-19-21-------------------------19-21-23-19-21-23----
B|-17-19-21-17-19-21-------------------------19-21-22-19-21-22----------------------------
G|------------------------------------------------------------------------------------------------
D|------------------------------------------------------------------------------------------------
A|-------------------------------------------------------------------------------------------------
E|-------------------------------------------------------------------------------------------------

1 ½ Full
/ /\
E|-------------------------21-23-24-21-23-24-21-23-24-21-23-24-/--------/---21-------------
B|-21-22-24-21-22-24------------------------------------------------------21/-----------------
G|-------------------------------------------------------------------------------------------------
D|-------------------------------------------------------------------------------------------------
A|-------------------------------------------------------------------------------------------------
E|--------------------------------------------------------------------------------------------------

Full Full Full Full Full
/\ / / / /
E|-------/---\19-19-/-19-/-19-/-----/---------------------------------------------------------
B|--19/-------- -19/--19/--19/--19/----19-17-16-17-16-16---16h17-16h17-16\14---------
G|---------------------------------------------------------------------------------------------
D|---------------------------------------------------------------------------------------------
A|----------------------------------------------------------------------------------------------
E|----------------------------------------------------------------------------------------------

Full~~ Full
/ /\
E|-------------------------------------------------/------------------------/--\----12-12-12-11-11-
B|-12h14-12h14-12\9-------------------9-12/------------------------/----\-----------------------
G|------------------------11p9-----9h11----------------9-----8—12/-12p-9---------------------
D|-------------------------------11------------------/11---/10------------------------------------
A|--------------------------------------------------------------------------------------------------
E|---------------------------------------------------------------------------------------------------

Hold Bend and playΰ _____ _____ Tremolo Pick This
E|------------------------- /--------\--------/--------\----------------9-/11/-12/-14-/-16-/-17-\-16-
B|--12-12-9-9~/--- 12-/-12-12--\--12-/-12-12---\------------------------------------------------
G|--------------------11/--11-11-----11/--11-11----11p9--------6-/-8-/-9-/-11-/-13-/-14-\-13--
D|--------------------------------------------------------------11~~-------------------------------
A|---------------------------------------------------------------------------------------------------
E|---------------------------------------------------------------------------------------------------

Full Full
E|--\-14\-12\-11\12\-7------------------------------------------/-19------/----\------------------
B|-------------------------------------------------------------19/-------19/-------\17~~~~\\\----
G|-\-11-\-9-\-8-\-9-\-4~~~-//\\--9~-9p6----6-6-10~~-------------------------------------------
D|--------------------------------------------9----------------------------------------------------
A|--------------------------------------------------------------------------------------------------
E|---------------------------------------------------------------------------------------------------

Main Riff 1
PM ……… ……………… …………….. .. ..
E|--------------------------------------------------------------------------------------------------------------0------
B| ----------------------------------------------------------------------------------------------2------4---------4----
G|----------------------------------------------------------------2--------4-----1------2--------------------------6--
D|--9-----9-----9--/--11--9------ 9-------4------7-6-4------ 2-----2-----2-----2------2------2------2-------------
A|- 7--7-----7---------------------9----6------6---------------0-----------------------------------------------------
E|--0-------------------------------7---------------------------------------------------------------------------------

E|------------------------------------------0---------------------0------------- This riff is played once
B|-------5-7-5-----4-5-4-------------------4----------4----------------------
G|---6--6-6-6--4--4-4-4---2------4----------6--2-2----2-------------------
D|---6--6-6-6--4--4-4-4---2---4-----4---------------------------------------
A|---4-----------2-----------0--------------------------------------------------
E|------------------------------------------------------------------------4--2---

Riff 2 Play this riff 4 times
E|----------------------------------------------------------
B|---------------------------------------------------------
G|--4--/--6----4----6----2----4--/--6-------------- 2----
D|--4--/--6----4----6----2----4--/--6-------1--2- -2----
A|--2--/--4----2----4----0----2--/--4----2---------0----
E|---------------------------------------------------------

PM …... …... …… …..
E|-------------------------------------------------------------------------------
B|-------------------------------------------------------------------------------
G|--4--/--6-------6------------------------4--/--6---------6---------------2---
D|--4--/--6-------6------ 4----6p4------ 4--/--6---------6--------1---2-2----
A|--2--/--4--4-4-4-4-4-4-(4)-----4~~~2--/--4----4-4-4-4-4-2------- 0------
E|-------------------------------------------------------------------------------

Riff 2 Play twice, then play this until song ends
E|------------------------------------------------------- -|---0------0------0----------0------0------0----------
B|------------------------------------------------------- -|-----4------4------------------4------4---------------
G|--4--/--6----4----6----2----4--/--6-------------- 2- |--------4------4-----4--2--------4------4------------
D|--4--/--6----4----6----2----4--/--6-------1--2-- 2- |----------------------4--2-----------------------------
A|--2--/--4----2----4----0----2--/--4----2---------0--|----------------------2--0-----------------------------
E|-------------------------------------------------------- |-------------------------------------------------------