Bend Up
by the Deli Creeps

I tuned to the recording on this, but I think there's a capo at the first
fret. If so, everything's written with the capo as open.

-||-3-3-3-3--3----3-3-3-3--2----3p2---||-
-||-3-3-3-3--3----3-3-3-3--3--------3-||-
-||-0-0-0-0--0----0-0-0-0--2----------||-
-||-0-0-0-0--2----0-0-0-0--0----------||-
-||-2-2-2-2--3----2-2-2-2-------------||-
-||-3-3-3-3-------3-3-3-3-------------||-

-||-3-3-3-3--3----3-3-3-3-------------||-
-||-3-3-3-3--3----3-3-3-3--2----------||-
-||-0-0-0-0--0----0-0-0-0--2----------||-
-||-0-0-0-0--2----0-0-0-0--2----------||-
-||-2-2-2-2--3----2-2-2-2--0----------||-
-||-3-3-3-3-------3-3-3-3-------------||-

I think this part is right. The actual strings he hits may vary, but
the chords are all right. Just use this as a loose guide.
-||---2---3-2p0---0h2-----|------------------------------||-
-||---3---------3-----3---|-------3----------------------||-
-||---------------------0-|-----0---0--------------------||-
-||-0---0-----------------|---2-------2----0-----0h2p0---||-
-||-----------------------|-3------------------2-------2-||-
-||-----------------------|-------------3----3-----------||-

Do the first part instead of the last two notes in the previous riff.
-||-----||-----------------------||-
-||-----||-----------------------||-
-||-----||-----0-------0---0-----||-
-||-----||-------2---4---4-------||-
-||-----||---2-----2-------------||-
-||-3-2-||-0-----------------3-2-||-

The solo's in E minor, I think, but I haven't tabbed it out yet.