Bend Up (solo) by the Deli Creeps

tabbed by Matt Masseth

br - Bend and Return
b - Bend
r - Return
~ - Vibrato
/ - Slide

E||--10--------------------------------------------------------|
B||-----11-9-11-9----9-----------------------------------------|
G||---------------10---10-8-10-8-7-8-7-8-7---8-7---------------|
D||------------------------------------------------------------|
A||------------------------------------------------------------|
E||------------------------------------------------------------|

-----------------------------------------------------------------------------|
----------------------------------------------------------11-----------------|
---------8--10--10br---8~----------------8--10--8--10b---------10r---8~------|
--8--10--------------------------8--10---------------------------------------|
-----------------------------------------------------------------------------|
-----------------------------------------------------------------------------|

----11--11--11--11--10----------------------------------|
------------------------11--11b---11------9--8--8--8~---|
--------------------------------------------------------|
--------------------------------------------------------|
--------------------------------------------------------|
--------------------------------------------------------|

---------------------------------------------------|
----8----------------------------------------------|
-------10--8--10----10--10/12--10--8~--------------|
---------------------------------------------------|
---------------------------------------------------|
---------------------------------------------------|

--11p-10-----------------------------------------------------|
----------13p-11~--------------------------------------------|
--------------------13p-12--10~-----12p10p-8~----------------|
------------------------------------------------10--8--8h10--|
-------------------------------------------------------------|
-------------------------------------------------------------|

---------------------------------------------------------------|
------------------------------------11----11~------------------|
--8-------------------------8-10-12----12----------------15-17-|
-----10p-8-----------------------------------------15-17-------|
------------10b---10~------------------------------------------|
---------------------------------------------------------------|

----------------------------18-----------------------|
------------16b-16~--18b-----------18r---16~---------|
--15-17--15------------------------------------------|
-----------------------------------------------------|
-----------------------------------------------------|
-----------------------------------------------------|

--------------------------------------------------------------|
--------------------------------------------------------------|
-----------12--13--12----------------------------------12--13-|
---10--13---------------13----13----10~-------10---13---------|
--------------------------------------------------------------|
--------------------------------------------------------------|

---------------------------------------------------------|
---------------------------------------------------------|
---12--------13r-------------------12--13--12------------|
-------13------------------10--13---------------13----13-|
---------------------------------------------------------|
---------------------------------------------------------|

-------------------------------------------------------||
-------------------------------------------------------||
----------------------12--13----12---------------------||
---10~-------10---13----------------13----10--8~-------||
-------------------------------------------------------||
-------------------------------------------------------||