Aquabot by Buckethead
from Giant Robot


tabbed by Treebeard

Riff 1
e|-------------------------------------------------------|
b|-------------------------------------------------------|
g|-------------------------------------------------------|
d|--------1-----1h3--1--1---------------1---1h3p1h3b|
a|0--3-3-----3-------------0-1--2--3-3----3----------|
e|------------------------------------------------------|

Repeat this as many times as necessary.

Riff 2
e|------------------------------------------------------|
b|------------------------------------------------------|
g|-------------------------------------------------8b---|
d|8h10-8h10-8h10-------------8h10-8h10-8h10------|
a|--------------------8-6------------------------------|
e|--------------------------8---------------------------|

e|---------------------------------------|
b|---------------------------------------|
g|---------------------------------------|
d|8h10-8h10-8h10------------------5--|
a|-------------------8-6----8-6-8---6--|
e|-------------------------8-------------|

e|------------------------------------------------|
b|------------------------------------------------|
g|---------------------------------------8b-------|
d|8h10-8h10-8h10---------8h10-8h10-8h10----|
a|-------------------8-6--------------------------|
e|------------------------8------------------------|

e|---------------------------------|
b|-----------------------11-------|
g|------------------10b----10b--|
d|8h10-8h10-8h10--------------|
a|--------------------------------|
e|--------------------------------|

e|--------------------------------------------------|
b|--------------------------------------------------|
g|-----------------------------------------8b-------|
d|8h10-8h10-8h10-----------8h10-8h10-8h10-----|
a|-------------------8-6-----------------------------|
e|------------------------8---------------------------|

e|---------------------------------------|
b|---------------------------------------|
g|---------------------------------------|
d|8h10-8h10-8h10------------------5--|
a|-------------------8-6----8-6-8---6--|
e|------------------------8---------------|

e|-------------------------------------------------|
b|-------------------------------------------------|
g|---------------------------------------8b-------|
d|8h10-8h10-8h10---------8h10-8h10-8h10----|
a|-------------------8-6----------------------------|
e|------------------------8--------------------------|

e|--------------------|
b|--------------------|
g|--------------------|
d|8h10---------------|
a|------9--8-6----6--|
e|--------------6-----|

After this do Riff 1 again at the appropriate time.

Riff 3
e|-----------------------------------------------------|
b|-----------------------------------------------------|
g|----------8-7-------------10-8/-12-15--13--10----|
d|10-8-10-------12----12-------------------------9--|
a|-------------------10--------------------------------|
e|------------------------------------------------------|


transcribed by justin binge buddy

here's a rough guide to aquabot from giant robot

E|----------------------------------------------------------
B|----------------------------------------------------------
G|----------------------------------------------------------
D|----------------------------------------------------------
A|-------6--x-8b10r8-6-----------6--x-8b10r8-6-8b10~----x\\-
E|6-8-8-----------------6-7-8-8-------------------------x\\-

E|----------------------------------------------------------------------------------
B|----------------------------------------------------------------------------------
G|--------------------------------------8~~~~---------------------------------------
D|8h10-8h10-8h10---------8h10-8h10-8h10------8h10-8h10-8h10-------------------------
A|---------------8------------------------------------------8-------8-----8-10------
E|-----------------11-8---------------------------------------11-8-----11------11~~~

1(lap steel style) 2
E|------------------------|-----------------------
B|-------11~~-11----11----|-----------------------
G|10b12~~~~~~-10b12-10b12-|-----------------------
D|------------------------|10~--------------------
A|------------------------|----9~-8~-6~----------
E|------------------------|--------------6-7-8----


E|----------------------------------------------------7~~~~-
B|-----------------------------------8~~---11-9~~---9-------
G|---------8-7~~---7----7-10-8~~---8------------------------
D|10----10--------------------------------------------------
A|---10--------------10-------------------------------------
E|----------------------------------------------------------

and i think these little licks are in there some place..

E|-----------------
B|-----------------
G|8--7-------------
D|------5----------
A|-----------------
E|-----------------

and of course

"A quabot"
E|----------------
B|----------------
G|10b11--8--------
D|---------10-----
A|----------------
E|----------------