Animal Behavior solo by Buckethead
from Praxis Transmutation

tabbed by Ryan Cole and Mike Schwibbe

no timing is indicated here, I figure anyone who wants to play the song
will have heard it enough to know...plus it's just a really big pain.

* = pinch harmonic
b = bend
r = release
h = hammer-on
p = pull-off
/ = slide up
\ = slide down

E||-----------------------------------------------------------|-------
B||-7-----9---------------------------------------------------|-5p4---
G||-------------9-----8---8-----6-----8-----------------------|-------
D||-----------------------------------------9-----6-----------|-------
A||-----------------------------------------------------------|-------
E||-9---9---9---9---9---9---9---7---7---7---7---7---7---7---7-|-5---5-

E---------7-----------------------------------------------||----------
B-4---5---------------------5p4---4-----------------------||----------
G-------------------------------------4-------------------||----------
D-----------------------------------------4---------------||----------
A---------------------------------------------------------||----------
E---5---5---5---5---5---5---5---5---5---5---5---5---5---5-||----------

*
E-------------------------------7-/12-11--------
B-12-10-9-9p7p5-4-4-5-------4-5----------12-----
G---------------------(4)h6-----------------13--
D-----------------------------------------------
A-----------------------------------------------
E-----------------------------------------------

E-------------------19--------------------------
B-------------19b21----19b21r19-17h19p17\16-17--
G-11-11-9-8-------------------------------------
D-----------9-----------------------------------
A-----------------------------------------------
E-----------------------------------------------

E----------------------------------------------------------
B-19-19----------------------------------------------------
G----------------------------------------------------16----
D-------/14-14-14-13-13-13-(13)h14-13-------14-16/18----18-
A-------------------------------------14-16----------------
E----------------------------------------------------------

E-----------------------------------------------
B-19b21-19b21r19-17h19p17-16-16b17r16b17r16-----
G-------------------------------------------16--
D-----------------------------------------------
A-----------------------------------------------
E-----------------------------------------------
* *
E--------------------------------------------
B-2-5p4-2------------------------------------
G-----------------------------4-4-(4)\1------
D-----------4b5r4-2---2---2h4----------------
A-------------------4---4---------------/X\--
E---------------------------------------/X\--

E----------------------------------------------
B-5b()-------------------------------16h17p16-
G-------6-6-6/8-8-8----------------------------
D-------------------9-9-6-(6)\--16h18----------
A----------------------------------------------
E----------------------------------------------

E-------19-17-17h19p17-16------------------------------
B--------------------------9-9-12-------12---12---12---
G-18-16---------------------------11-11----9----8------
D----------------------------------------------------9-
A------------------------------------------------------
E------------------------------------------------------

E----------------------------------------------------
B-------------------------------------------16-12-12-
G------9h11p9-11-11-11-11/13-13-13/14-14-13----------
D-9h11-----------------------------------------------
A----------------------------------------------------
E----------------------------------------------------

E--------------------------------------------------
B-12-12\9-(9)\-4-4-4-(4)h5-------------------------
G--------------------------4-4-----4-6---8-8b9r8-6-
D------------------------------4h6-----6-----------
A--------------------------------------------------
E--------------------------------------------------

E---------------------------9----12p11-9-----------
B----------------------------------------9---------
G-8b9r8-6-8b9r8--11-(11)b13---11-----------9-8b9r8-
D--------------------------------------------------
A--------------------------------------------------
E--------------------------------------------------

E--------------------------------------------------------
B---5\4-4/5-5-5/7-7-7/9-9-9/10-10-10\9-9-9-9/10-10-10/12-
G-X------------------------------------------------------
D--------------------------------------------------------
A--------------------------------------------------------
E--------------------------------------------------------

E----------------------------------------------------------
B-12-12/14-14-14\12-12-12\14-14/17-17\16-16/17-17\16-16/17-
G----------------------------------------------------------
D----------------------------------------------------------
A----------------------------------------------------------
E----------------------------------------------------------

E-------------------------------------------------------
B-17\16-16/17-17\16-16/17-17\16-16/17-17\16-16/17-17\16-
G-------------------------------------------------------
D-------------------------------------------------------
A-------------------------------------------------------
E-------------------------------------------------------

E-------------------------------------------------
B-16\14-14-9-10-9-9-10--------10-12-12-10h12p10p9-
G----------------------9-9-11---------------------
D-------------------------------------------------
A-------------------------------------------------
E-------------------------------------------------

E----------------12-11-9-------------||-
B-------------------------12-10-9----||-
G-/4-4-4-4-(4)\1------------------11-||-
D------------------------------------||-
A------------------------------------||-
E------------------------------------||-

I'm sure I got it all right, but I might've made a mistake or two
tabbing it out. if you find any, let me know at SickINK2@aol.com