Angel Monster by Buckethead
from Electric Tears



as tabbed by Kevin Murphy

e---------------------------3------------------------------------------------------I
B----------------------0------------0----------------------------------------------I
G-----------------5------------------------5---------------------------------------I
D------------2-----------------3---------------------------------------------------I
A-------0--------------------------------------------------------------------------I
E----------------------------------------------------------------------------------I

e------------------------7---------------------------------------------------------I
B-------------------0-----------------0--------------------------------------------I
G---------------5----------------7-------------------------------------------------I
D-----------7----------------5-----------------------------------------------------I
A-------0--------------------------------------------------------------------------I
E----------------------------------------------------------------------------------I

The first part is the main riff of the song, and the second part is at about 1:40
and also scattered throughout other parts of the song.