A Day Will Come
by Buckethead
from Population Override

as tabbed by Keenan Goodall

So far I only tabbed bits and pieces of it. Hopefully I'll figure the whole thing out eventually.

Standard Tuning

Keyboard Intro
------------------------------------------------------------------------------------
------------------------------------------------------------------------------------
------------------------------------------------------------------------------------
--7--5--------5---------------------------------------------------------------------
---------7---------7---5---7------3----5-----3-------------------------3--------3---
--------------------------------------------------5---3---5----3---5--------5-------

-------------------------------------------------------------------------------------
-------------------------------------------------------------------------------------
-------------------------------------------------------------------------------------
---------5---------------------------------------------------------------------------
--5--7-------7--5---3----------------------------------------------------------------
-------------------------5---3-------------------------------------------------------

Guitar comes in
-------------------------------------------------------------------------------------
-------------------------------------------------------------------------------------
-------------------------------------------------------------------------------------
-------------------------------------------------------------------------------------
-------------3------3---5---3----5:6-----5---3---------------------------------------
---5---3-5-------5--------------------------------5----------------------------------   repeat a bunch of times

barely play the 5, it's just a little grace note
from now on " : " indicates grace notes

Part of the solo (3:42)
----------------------------------------------------------------------------------------
----------------------------------------------------------------------------------------
----------------------------------------------------------------------------------------
---------------5------------------------------------------------------------------------
-------3--5/7------5---5\3------3~-------------3---5---3-5:6---5--3-----3~--------------
--3h5------------------------5------5-----3h5-------------------------5-------5---------