F-4 Phantom by Buckethead
from Funnel Weaver

tabbed by Chris Moss

to get this song perfect, palm mute and strum fast but steady.
listen to the song to get everything correct

e||----------------------||
b||----------------------||
g||----------------------||
d||----------------------||
a||--3-3-3-3-3-3-3-3--0--||
E||--1-1-1-1-1-1-1-1--0--||
   <------pm--------->

e||----------------------||
b||----------------------||
g||----------------------||
d||----------------------||
a||--5-5-5-5-5-5-5-5--4--||
E||--3-3-3-3-3-3-3-3--2--||
   <-------pm--------->

guitar doubled, bend up slightly after another. bend up gradually
e||--15^----||
b||---------||
g||---------||
d||---------||
a||---------||
E||---------||