911 by Buckethead
from Bermuda Triangle

tabbed by Scraps (spider_crawl15@hotmail.com)

This is all I have so far. I did this in about a 10 minute period, I'll try the lead part on the main riff later.

Intro
E|-12~~--8~~----5~~------------------------8---5h8p5~~-----12~~---8~~---5~----------------------
B|--------------------------------------------10-----------------------------------------------------------
G|-------------------------------------12------------------------------------------------------------------
D|--------------------------------12-----------------------------------------------------------------------
A|----------------------------------------------------------------------------------------------------------
E|----------------------------------------------------------------------------------------------------------

Main Riff
E|----------10~---------------------------------------------------------------
B|-8h10----------8h10--------------------------------------------------------
G|----------------------------9~-----------------------------------------------
D|------------------------------------------------------------------------------
A|------------------------------------------------------------------------------
E|-------------------------------------------------------------------------------