The 13th Scroll by Buckethead
from Cobra Strike: 13th Scroll

tabbed by siknsyko

intro

E||---------------|-----------------|---------------|-----------------
B||---------------|-----------------|---------------|-----------------
G||---------------|-----------------|---------------|-----------------
D||---------------|-----------------|---------------|-----------------
A||---------4---5-|-55--------------|---------4---5-|-55--------------
E||-2-22-22---2---|-----555--444--2-|-2-22-22---2---|-----555--444--2-

crazy bridge ditty

E||----------------------------------------
B||----------------------------------------
G||----13--12-------13--12-----------------
D||-14-----14----14-----14----------------- repeat intro and bridge
A||-------------------------15-------------
E||----------------------------------------

palm mute

E||----------------------------------|
B||----------------------------------|
G||----------------------------------|
D||----------------------------------| play 4x, then
A||----------------------------------|
E||-22222222222222222222222233331111-|

continue palm muting

E||----------------------------------|-----------------------------------|
B||----------------------------------|-----------------------------------|
G||----------------------------------|-----------------------------------|
D||----------------------------------|-----------------------------------|
A||----------------------------------|-----------------------------------|
E||-444444444444444444444444477775555|4444444444444444444444444455552222-|

back to intro and bridge

guitar and bass solo begins (don't look at me for this)

background guitar during solo

E||---------------| E||---------------|
B||---------------| B||---------------|
G||---------------| G||---------------|
D||---------------| repeat 24x (yes,24) then D||---------------| repeat 8x,
A||---------------| A||---------------| then back to first part 4x
E||-0--00-00--1-0-| E||-2--22-22--3-2-|

back to intro to finish